Oops, an error
Loading. Please wait.

Slip To The Void Tab

version 2
version 2

Whole song

Interactive

5,986 views 9 this week
no commentswrite comment
1 2 3 4 5
accurate
x 5
add to favorites
launch autoscroll
font size
0
reset
how to read this tab
guitar tuner
Autoscroll
slow
fast
+/-
esc
set tempo
stop
Help us to improve Ultimate-Guitar.com Take our survey!
×
Author
Tuning is Drop D half a step down.

 I've put the chords as close to where they're played as I could but the odd one
 may be slightly off from where it should be (such as the octaves in the chorus need to 
be played       slower than i've put etc) but you're all pro enough to figure
 that and the strumming patterns out :).

 Intro

  (Hold and pick the 5 and 7 repeatedly)

  |---------------------------------------------------------------------------|
  |-------------------------------------5-------------------------------------|
  |-------------------------------------7b------------------------------------|
  |--10-12-10-12-10-12-10-12-10-12-10-----------------------------------------|
  |--10-12-10-12-10-12-10-12-10-12-10-----------------------------------------|
  |--10-12-10-12-10-12-10-12-10-12-10-----------------------------------------|

 Main Riff

  |---------------------------------------------------------------------------|
  |---------------------------------------------------------------------------|
  |---------------------------------------------------------------------------|
  |--8-7----------------------------------------------------------------------|
  |------10---10-12-------1/3-3/5-10\6------1/6\5-----------------------------|
  |---------0-------0--0----------------0-0-------0-0-0-----------------------|

     You were once led to believe, You were young and so naive

  |---------------------------------------------------------------------------|
  |---------------------------------------------------------------------------|
  |---5----------------------------3------------------------------------------|
  |---5----------------------------3------------------------------------------|
  |---3----------------------------1------------------------------------------|
  |---------------------------------------------------------------------------|

      But it's all in the way, You turn your back today

  |---------------------------------------------------------------------------|
  |---------------------------------------------------------------------------|
  |---3------------------------5----------------------------------------------|
  |---3------------------------5----------------------------------------------|
  |---1------------------------3----------------------------------------------|
  |---------------------------------------------------------------------------|

      Left to face this alone, left to die with nothing you can hold

  |---------------------------------------------------------------------------|
  |---------------------------------------------------------------------------|
  |-----------7---------3-------------4/5/7-----3-----------------------------|
  |-----------7---------3-----------------------1-----------------------------|
  |-----------5---------1-------------2/3/5--0--1-----------------------------|
  |------------------------------------------0--1-----------------------------|

  |--------------------------10-----------------------------------------------|
  |--------------------------13b----------------------------------------------|
  |---------------------------------------------------------------------------|
  |--8-7----------------------------------------------------------------------|
  |------10---10-12-----------------------------------------------------------|
  |---------0-------0--0------------------------------------------------------|


      Left to break in the cold, in the void that you made, the moment you let love go

  |----------------------------------------------------------------------------|
  |----------------------------------------------------------------------------|
  |-----------7---------3-------------4/5/7-----3------------------------------|
  |-----------7---------3-----------------------1--------------1-1---------3-3-|
  |-----------5---------1-------------2/3/5--0--1--------------1-1---------3-3-|
  |------------------------------------------0--1--------------1-1---3*~---3-3-|

Breakdown

  |-------------------------------------------------------------------------------------------|
  |-------------------------------------------------------------------------------------------|
  |-------------------------------------------------------------------------------------------|
  |----------------------------------------------------------------------10-------------------|
  |------------12-12-12-12-----------13-13-13-13-----------12-12-12-12------12---13-13-13-13--|
  |--0-10-12-0-------------0-10-12-0-------------0-10-12-0-------------0-------0--------------|


     Try and win back your days, you let them all escape your heart

  |---------------------------------------------------------------------------|
  |---------------------------------------------------------------------------|
  |--5---------------------5-----7----------------5---------------------------|
  |--3---------------------5-----5----------------3---------------------------|
  |--3---------------------3-----5----------------3---------------------------|
  |--3---------------------------5----------------3---------------------------| Repeat 
chords after each solo.

  Outro: Repeat the first two bends as needed and pick in time with the song.

  |---10-------12-----------------13------------------------------------------|
  |---13b------15b----------------16b-----------------------------------------|
  |---------------------------------------------------------------------------|
  |---------------------------------------------------------------------------|
  |---------------------------------------------------------------------------|
  |---------------------------------------------------------------------------|
Suggest correction
comments
print report bad tab
guest
You may want to rate the tab now too:
select rating
Please do not post tabs as comments. Select "correction" instead!