Oops, an error
Loading. Please wait.

Still Remains Bass Tab

version 1
version 1

Whole song

Interactive

1,017 views 1 this week
no commentswrite comment
1 2 3 4 5
please rate
add to favorites
launch autoscroll
font size
0
reset
guitar tuner
Tab Pro tools
  • play this tab
  • loop segment
  • change instrument
  • show fretboard
  • metronome
Autoscroll
slow
fast
+/-
esc
set tempo
stop
Difficulty
intermediate
-------------------------------------------------------------------------------
			     STILL REMAINS - Alter Bridge
-------------------------------------------------------------------------------

Tabbed By : Pete Kelley
e-mail: pfkelley9@yahoo.com

Tuning:high to low ( G, D, A, E, Bb )

Intro (come in at 31sec)x 2:
G|------------------------------------------------------|
D|------------------------------------------------------|
A|------------------------------------------------------|
E|6------7604h6606-----7-4-------6------7604h6606-----4-|
Bb-0-0000---------0-000-----------0-0000---------0-000--|

Verse x 2:
G|-----------------------------------------------------------------|
D|-----------------------------------------------------------------|
A|-----------------------------------------------------------------|
E|6------7604h6606-----7-4-------6------7604h6606-----4----222222--|
Bb-0-0000---------0-000-----------0-0000---------0-000-----------4-|

Chorus x 2:
G|-------------------------------------------|
D|-------------------------------------------|
A|-------------------------------------------|
E|222222h444444h555555h7777------------------|
Bb-------------------------44444444441111111-|

Intro riff once:
G|------------------------------------------------------|
D|------------------------------------------------------|
A|------------------------------------------------------|
E|6------7604h6606-----7-4-------6------7604h6606-----4-|
Bb-0-0000---------0-000-----------0-0000---------0-000--|

Verse:
G|-----------------------------------------------------------------|
D|-----------------------------------------------------------------|
A|-----------------------------------------------------------------|
E|6------7604h6606-----7-4-------6------7604h6606-----4----222222--|
Bb-0-0000---------0-000-----------0-0000---------0-000-----------4-|

G|-------------------------------------|
D|-------------------------------------|
A|-------------------------------------|
E|6------7604h6606-----7-4---22222222--|
Bb-0-0000---------0-000--------------4-|

Chorus x 2:                                      Ending before crazy solo:
G|---------------------------------------------|-----|
D|---------------------------------------------|-----|
A|---------------------------------------------|-----|
E|222222h444444h555555h7777--------------------|-----|
Bb-------------------------44444444441111111---|0----|

"They'll deny it all"    Bridge x 4:
G|---------------------|-------------------------|
D|---------------------|-------------------------|
A|---------------------|-------------------------|
E|---------------------|6-----------6------------|
Bb00000000000000000000-|-0-000123333-4-4455/8888-|

Chorus x 4:
G|--------------------------------------------|
D|--------------------------------------------|
A|--------------------------------------------|
E|222222h444444h555555h7777-------------------|
Bb-------------------------44444444441111111--|

Outro x 4:                  Ending
G|-------------------------|----|
D|-------------------------|----|
A|-------------------------|----|
E|6-----------6------------|----|
Bb-0-000123333-4-4455/8888-|0---|
comments
We did not receive enough feedback on this tab! Please rate:
print report bad tab
1 2 3 4 5
I want to post or [tab]
guest
You may want to rate the tab now too:
select rating
Please do not post tabs as comments. Select "correction" instead!