Oops, an error
Loading. Please wait.

The Last Hero Tab

937 views 87 this week
4 commentsread comments
1 2 3 4 5
x 3
add to favorites
launch autoscroll
font size
0
reset
how to read this tab
guitar tuner
Autoscroll
slow
fast
+/-
esc
set tempo
stop
Help us to improve Ultimate-Guitar.com Take our survey!
×
Author
Difficulty
Tuning
advanced
C G C F A D
About this tab version
The main solo of the song. Spent good time on formatting and getting it right, should be 100% correct. Was this info helpful? Yes No
  Fm                        Eb                        D                         G
D|-----------------8-------|-----------------8-------|-------------------------|--------------------13-17|
A|-10b11~~~------------pb11br10~~----------------10--|-9~~~----------7--9------|pb10br9b10~~------15-----|
F|-------------------------|-------------------------|-------------------------|-------------------------|
C|-------------------------|-------------------------|-------------------------|-------------------------|
G|-------------------------|-------------------------|-------------------------|-------------------------|
C|-------------------------|-------------------------|-------------------------|-------------------------|

  Fm                        Eb                        D                         G
D|-17b18~~-------18b20br18-|-17~~~---------17b20br17-|-16~~~-----------14--16--|pb17br16-pb17~~----------|
A|-------------------------|-------------------------|-------------------------|-------------------------|
F|-------------------------|-------------------------|-------------------------|-------------------------|
C|-------------------------|-------------------------|-------------------------|-------------------------|
G|-------------------------|-------------------------|-------------------------|-------------------------|
C|-------------------------|-------------------------|-------------------------|-------------------------|

  Fm                                                  Eb
D|--pb18br17--15--17p15------15----------------------|-pb17br15--13h15--13------13-----------------------|
A|-----------------------18------18--17--18--17--15--|----------------------17------17--15--17--15p13----|
F|---------------------------------------------------|---------------------------------------------------|
C|---------------------------------------------------|---------------------------------------------------|
G|---------------------------------------------------|---------------------------------------------------|
C|---------------------------------------------------|---------------------------------------------------|

  D                                                   G
D|---------------------------12--16--12--------------|---------------------------------------------------|
A|-----------------------12--------------12----------|--12b14br12b14br12b14br12--10~\--------------------|
F|-------------------13----------------------13------|---------------------------------------------------|
C|---------------14------------------------------14--|---------------------------------------------------|
G|-------11--14--------------------------------------|---------------------------------------------------|
C|---14----------------------------------------------|---------------------------------------------------|

  Fm                        Eb                        D                         G
                                                                                    N---------------------
D|-------------------------|-------------------------|-------------------------|----17-------------------|
A|--13b15br13--13~~--------|--15b17br15--15~~--------|--17b18br17--17~~--------|-------------------------|
F|-------------------------|-------------------------|-------------------------|-------------------------|
C|-------------------------|-------------------------|-------------------------|-------------------------|
G|-------------------------|-------------------------|-------------------------|-------------------------|
C|-------------------------|-------------------------|-------------------------|-------------------------|
                                                                               Pick extremely fast, by ear
  G
  N-------------------------------------------------------------------------------------------------------
D|-18-17-15-17-15-13-15-13-15-17-15-13-15-13-12-13-|12-13-15-13-12-13-12-10-12-10-12-13-12-10-12-10-9-10-|
A|-------------------------------------------------|-----------------------------------------------------|
F|-------------------------------------------------|-----------------------------------------------------|
C|-------------------------------------------------|-----------------------------------------------------|
G|-------------------------------------------------|-----------------------------------------------------|
C|-------------------------------------------------|-----------------------------------------------------|
  Use hammer-ons, pull-offs while tremolo picking

  G
  N------------------------------------|
D|9-10-12-10-9-10-9-6-9-6-9-10-9-6-9-6---6---------|--------------9~----------|-10~----------12~---------|
A|-------------------------------------10-10-10----|10~~------10-----------10-|---------10-----------10--|
F|-------------------------------------------------|------9------------9------|-----9------------9-------|
C|-------------------------------------------------|--------------------------|--------------------------|
G|-------------------------------------------------|--------------------------|--------------------------|
C|-------------------------------------------------|--------------------------|--------------------------|

  G
D|-/13--12--10--/15--13--12|--/17-17-17-18-18-18-20-20-20-21-21-21-21b22~~~---|
A|-------------------------|--------------------------------------------------|
F|-------------------------|--------------------------------------------------|
C|-------------------------|--------------------------------------------------|
G|-------------------------|--------------------------------------------------|
C|-------------------------|----------------------------------------------s\--|
                                                                  Heavy vibrato

***********************************
| b   Bend
| ~   Vibrato
| pb  Pre-bend
| br  Bend release
| p   Pull-off
| h   Hammer-on
| \   Slide down
| N-| Tremolo picking Section
| /   Slide up
***********************************
Suggest correction
Give kudos to tab author, rate the tab!
1 2 3 4 5
comments
print report bad tab
4 comments total. Showing first comments.
0 reply
BudzMJJ 20 Nov 16, 2016 12:50 AM

Dude, really? Did you even listen to the song? Is this Myles or Marks solo? If it's Myles', where is the last part?

0 reply
kikothegreat 851 Nov 16, 2016 04:35 AM

its the first solo, myles'. i dont get u, what part? whats incorrect?

+1 reply
BudzMJJ 20 Nov 18, 2016 02:46 PM

Er, ok that is weird. I thought I posted this comment on a tab for the Island of Fools solo. Apologises man, I see nothing wrong with this one at all.

guest
You may want to rate the tab now too:
select rating
Wanna post a correction for this tab? Suggest correction