Oops, an error
Loading. Please wait.

The Last Hero Tab

version 2
version 2

Whole song

  • Love this song. Took a few days of laziness to do. Suggestions are welcome.
2,788 views 39 this week
9 commentsread comments
1 2 3 4 5
x 7
add to favorites
launch autoscroll
font size
0
reset
how to read this tab
guitar tuner
×
Best way to learn
"The Last Hero"
Autoscroll
slow
fast
+/-
esc
set tempo
stop
Author
Difficulty
Tuning
advanced
C G C F A D
About this tab version
Love this song. Took a few days of laziness to do. Suggestions are welcome. Was this info helpful? Yes No
[Intro Verse]

Mark  - Gtr 1

D|-0-------------------------------|-0-------------------------------|
A|-6-------------------------------|-5-------------------------------|
F|-7-------------------------------|-6-------------------------------|
C|-7-------------------------------|-7-------------------------------|
G|-5-------------------------------|-4-------------------------------|
C|---------------------------------|---------------------------------|

Myles - Gtr 2

D|---------------------------------|---------------------------------|
A|---------------------------------|---------------------------------|
F|-7--7--7--7--7--7----------------|-6--6--6--6--6--6----------------|
C|---------------------------------|---------------------------------|
G|-5--5--5--5--5--5--(x4)----------|-4--4--4--4--4--4--(x4)----------|
C|---------------------------------|---------------------------------|




Mark

D|-8--------------------------------|-10----------------13-----------|
A|-8--------------------------------|-10-----------------------------|
F|-10-------------------------------|-12-----------------------------|
C|-10-------------------------------|-12-----------------------------|
G|----------------------------------|--------------------------------|
C|----------------------------------|--------------------------------|

Myles

D|----------------------------------|--------------------------------|
A|----------------------------------|--------------------------------|
F|-5--5--5--5--5--5-----------------|-4--4--4--4--4--4---------------|
C|----------------------------------|--------------------------------|
G|-3--3--3--3--3--3--(x4)-----------|-2--2--2--2--2--2--(x4)---------|
C|----------------------------------|--------------------------------|




Mark  - Gtr 1

D|-0-----------------------0--------|-0------------------------------|
A|-6--------------------------6-----|-5------------------------------|
F|-7-----------------------------7--|-6------------------------------|
C|-7--------------------------------|-7--------------7---------------|
G|-5--------------------------------|-4------------------------------|
C|----------------------------------|--------------------------------|

Myles - Gtr 2

D|----------------------------------|--------------------------------|
A|----------------------------------|--------------------------------|
F|-7--7--7--7--7--7-----------------|-6--6--6--6--6--6---------------|
C|----------------------------------|--------------------------------|
G|-5--5--5--5--5--5--(x4)-----------|-4--4--4--4--4--4--(x4)---------|
C|----------------------------------|--------------------------------|




Mark

D|----------------------------------|--------------13----------------|
A|-------------------------8--------|-10-----------------------------|
F|-10------------------10-----7-----|-12-----------------------------|
C|-10-------------------------------|-12-----------------------------|
G|-8--------------------------------|--------------------------------|
C|----------------------------------|--------------------------------|

Myles

D|----------------------------------|--------------------------------|
A|----------------------------------|--------------------------------|
F|-5--5--5--5--5--5-----------------|--------------------------------|
C|----------------------------------|-3--3--3--3--3--3---------------|
G|-3--3--3--3--3--3--(x4)-----------|-3--3--3--3--3--3---------------|
C|----------------------------------|-3--3--3--3--3--3--(x4)---------|




Mark

D|------------------------12\-------|--------------------------------|
A|-11-------------------------------|-10-----------------------------|
F|-10-------------------------------|-9------------------------------|
C|----------------------------------|--------------------------------|
G|----------------------------------|--------------------------------|
C|----------------------------------|--------------------------------|

Myles

D|----------------------------------|--------------------------------|
A|----------------------------------|--------------------------------|
F|-3--------------------------------|-2------------------------------|
C|----------------------------------|-2------------------------------|
G|-1--------------------------------|-0------------------------------|
C|----------------------------------|--------------------------------|

                                               ------

[Main Riff]

Mark

D|---------------------------------------------------|---------------------------------------------------|
A|-3----3--------------------------------------------|---------------------------------------------------|
F|-2----2--------------------------------------------|---------------------------------------------------|
C|-0----0--------------------------------------------|---------------------------------------------------|
G|-0----0-----------------------------------------\--|--8-8-8-8-8-8-7-7-5-5-4-4--10-10-10-10-10-10-------|
C|-0----0--------------------------------------------|---------------------------------------------7b8-7-|

Myles

D|---------------------------------------------------|---------------------------------------------------|
A|---------------------------------------------------|---------------------------------------------------|
F|---------------------------------------------------|---------------------------------------------------|
C|---------------------------------------------------|---------------------------------------------------|
G|-5-5-5-5-5-5-0-0----------5-5-5-5-5-5-0-0----------|-8-8-8-8-8-8-7-7-5-5-4-4--10-10-10-10-10-10--------|
C|-----------------3-3-0-0------------------3-3-0-0--|---------------------------------------------7p8-7-|

                                                    (x2)

                                                   ------

Mark

D|---------------------------------------------------|---------------------------------------------------|
A|---------------------------------------------------|---------------------------------------------------|
F|---------------------------------------------------|---------------------------------------------------|
C|---------------------------------------------------|---------------------------------------------------|
G|-8-8-8-8-8-8-7---5---0--8-8-8-8-8-8-7---5---0------|-12-12-12-12-12-12--10--8-7--15-15-15-15-15-15-----|
C|---------------------------------------------------|----------------------------------------------12b13|

Myles

D|---------------------------------------------------|---------------------------------------------------|
A|---------------------------------------------------|---------------------------------------------------|
F|---------------------------------------------------|---------------------------------------------------|
C|---------------------------------------------------|---------------------------------------------------|
G|-5-5-5-5-5-5-0-0----------5-5-5-5-5-5-0-0----------|-8-8-8-8-8-8-7-7-5-5-4-4--10-10-10-10-10-10--------|
C|-----------------3-3-0-0------------------3-3-0-0--|---------------------------------------------7p8-7-|

                                                    (x2)

                                                   ------

[Verse]

Mark

D|-------------0-----------------------0---------|-------------0-----------------------0---------|
A|-6---------------6-------6---------------6-----|-5-------------------5---5-------------------0-|
F|---------7-----------------------7-----------7-|---------6-----------------------6-------------|
C|-----------------------------------------------|-----------------------------------------------|
G|-5---5---5---5---5---5---5---5---5---5---5---5-|-4---4---4---4---4---4---4---4---4---4---4---4-|
C|-----------------------------------------------|-----------------------------------------------|

Myles

D|-----------------------------------------------|-----------------------------------------------|
A|-----------------------------------------------|-----------------------------------------------|
F|-7--7--7--7--7--7------------------------------|-6--6--6--6--6--6------------------------------|
C|-----------------------------------------------|-----------------------------------------------|
G|-5--5--5--5--5--5--(x4)------------------------|-4--4--4--4--4--4--(x4)------------------------|
C|-----------------------------------------------|-----------------------------------------------|




Mark

D|-------------8-----------------------8---------|-------------13----------12---------------------|
A|-8-----------------------8---------------------|-10------------------10----------10-------------|
F|---------10----------10----------10----------10|---------12-------------------------------------|
C|-----------------------------------------------|------------------------------------------------|
G|-8---8---8---8---8---8---8---8---8---8---8---8-|-10--10--10--10--10--10--10--10--10--10--10--10-|
C|-----------------------------------------------|------------------------------------------------|

Myles

D|-----------------------------------------------|------------------------------------------------|
A|-----------------------------------------------|------------------------------------------------|
F|-5--5--5--5--5--5------------------------------|-4--4--4--4--4--4-------------------------------|
C|-----------------------------------------------|------------------------------------------------|
G|-3--3--3--3--3--3--(x4)------------------------|-2--2--2--2--2--2--(x4)-------------------------|
C|-----------------------------------------------|------------------------------------------------|

                                                (x2)

                                               ------

Mark

D|-------------8-----------------------8----------|------------------------------------------------|
A|-11------------------11--11------------------11-|-10---------------------------------------------|
F|---------10----------------------10-------------|-9----------------------------------------------|
C|------------------------------------------------|-7----------------------------------------------|
G|------------------------------------------------|------------------------------------------------|
C|-8---8---8---8---8---8---8---8---8---8---8---8--|-7----------------------------------------------|

Myles

D|------------------------------------------------|------------------------------------------------|
A|------------------------------------------------|-------------------------------------------15/--|
F|-3--3--3--3--3--3-------------------------------|-2-----------------------------------------14/--|
C|------------------------------------------------|-2-----------------------------------------12/--|
G|-1--1--1--1--1--1--(x4)-------------------------|-0----------------------------------------------|
C|------------------------------------------------|------------------------------------------------|

                                               ------

[Chorus]

Mark

D|---------------------------------------------------|---------------------------------------------------|
A|-3----3--3--3--3----3----3--3--3--3----------------|---------------------------------------------------|
F|-2----2--2--2--2----2----2--2--2--2----------------|-6----6--6--6--6----6----6--6--6--6----------------|
C|-0----0--0--0--0----0----0--0--0--0----------------|-7----7--7--7--7----7----7--7--7--7----------------|
G|-0----0--0--0--0----0----0--0--0--0----------------|-7----7--7--7--7----7----7--7--7--7--(x2)----------|
C|-0----0--0--0--0----0----0--0--0--0--(x2)----------|---------------------------------------------------|

Myles

D|---------------------------------------------------|---------------------------------------------------|
A|-3----3--3--3--3----3----3--3--3--3----------------|---------------------------------------------------|
F|-2----2--2--2--2----2----2--2--2--2----------------|-2----2--2--2--2----2----2--2--2--2----------------|
C|-0----0--0--0--0----0----0--0--0--0--(x2)----------|-2----2--2--2--2----2----2--2--2--2----------------|
G|---------------------------------------------------|-0----0--0--0--0----0----0--0--0--0--(x2)----------|
C|---------------------------------------------------|---------------------------------------------------|




Mark

D|---------------------------------------------------|---------------------------------------------------|
A|---------------------------------------------------|-6----6--6--6--6----------5----5--5--5--5----------|
F|-3----5----7----5b6--------3----5----7----8----6---|-5----5--5--5--5----------6----6--6--6--6----------|
C|---------------------------------------------------|-3----3--3--3--3----------7----7--7--7--7----------|
G|-1----3----5---------------1----3----5-------------|-3----3--3--3--3----------4----4--4--4--4--(x2)----|
C|---------------------------------------------------|-3----3--3--3--3--(x2)-----------------------------|

Myles

D|---------------------------------------------------|---------------------------------------------------|
A|--------------6-------------------------8------6---|---------------------------------------------------|
F|-3----5----7--8b10---------3----5----7--10b12--8b10|---------------------------------------------------|
C|---------------------------------------------------|-3----3--3--3--3----------7----7--7--7--7----------|
G|-1----3----5---------------1----3----5-------------|-3----3--3--3--3----------4----4--4--4--4--(x2)----|
C|---------------------------------------------------|-3----3--3--3--3--(x2)-----------------------------|

                                                    (x2)

                                                   ------

[Main Riff]

Mark

D|---------------------------------------------------|---------------------------------------------------|
A|-3-------------------------------------------------|---------------------------------------------------|
F|-2-------------------------------------------------|---------------------------------------------------|
C|-0-------------------------------------------------|---------------------------------------------------|
G|-0----------------------------------------------\--|--8-8-8-8-8-8-7-7-5-5-4-4--10-10-10-10-10-10-------|
C|-0-------------------------------------------------|---------------------------------------------7b8-7-|

Myles

D|---------------------------------------------------|---------------------------------------------------|
A|---------------------------------------------------|---------------------------------------------------|
F|---------------------------------------------------|---------------------------------------------------|
C|---------------------------------------------------|---------------------------------------------------|
G|-5-5-5-5-5-5-0-0----------5-5-5-5-5-5-0-0----------|-8-8-8-8-8-8-7-7-5-5-4-4--10-10-10-10-10-10--------|
C|-----------------3-3-0-0------------------3-3-0-0--|---------------------------------------------\-----|




Mark

D|---------------------------------------------------|---------------------------------------------------|
A|---------------------------------------------------|---------------------------------------------------|
F|---------------------------------------------------|---------------------------------------------------|
C|---------------------------------------------------|---------------------------------------------------|
G|-8-8-8-8-8-8-7---5---0--8-8-8-8-8-8-7---5---0------|-12-12-12-12-12-12--10--8-7--15-15-15-15-15-15-----|
C|---------------------------------------------------|----------------------------------------------12b13|

Myles

D|---------------------------------------------------|---------------------------------------------------|
A|---------------------------------------------------|---------------------------------------------------|
F|---------------------------------------------------|---------------------------------------------------|
C|---------------------------------------------------|---------------------------------------------------|
G|-5-5-5-5-5-5-0-0----------5-5-5-5-5-5-0-0----------|-8-8-8-8-8-8-7-7-5-5-4-4--10-10-10-10-10-10--------|
C|-----------------3-3-0-0------------------3-3-0-0--|---------------------------------------------\-----|

                                                  ------

[Verse]

Mark

D|-------------0-----------------------0---------|-------------0-----------------------0---------|
A|-6---------------6-------6---------------6-----|-5-------------------5---5-------------------0-|
F|---------7-----------------------7-----------7-|---------6-----------------------6-------------|
C|-----------------------------------------------|-----------------------------------------------|
G|-5---5---5---5---5---5---5---5---5---5---5---5-|-4---4---4---4---4---4---4---4---4---4---4---4-|
C|-----------------------------------------------|-----------------------------------------------|

Myles

D|-----------------------------------------------|-----------------------------------------------|
A|-----------------------------------------------|-----------------------------------------------|
F|-7--7--7--7--7--7------------------------------|-6--6--6--6--6--6------------------------------|
C|-----------------------------------------------|-----------------------------------------------|
G|-5--5--5--5--5--5--(x4)------------------------|-4--4--4--4--4--4--(x4)------------------------|
C|-----------------------------------------------|-----------------------------------------------|




Mark

D|-------------8-----------------------8---------|-------------13----------12---------------------|
A|-8-----------------------8---------------------|-10------------------10----------10-------------|
F|---------10----------10----------10----------10|---------12-------------------------------------|
C|-----------------------------------------------|------------------------------------------------|
G|-8---8---8---8---8---8---8---8---8---8---8---8-|-10--10--10--10--10--10--10--10--10--10--10--10-|
C|-----------------------------------------------|------------------------------------------------|

Myles

D|-----------------------------------------------|------------------------------------------------|
A|-----------------------------------------------|------------------------------------------------|
F|-5--5--5--5--5--5------------------------------|-4--4--4--4--4--4-------------------------------|
C|-----------------------------------------------|------------------------------------------------|
G|-3--3--3--3--3--3--(x4)------------------------|-2--2--2--2--2--2--(x4)-------------------------|
C|-----------------------------------------------|------------------------------------------------|




Mark

D|-------------------------------------------|-------------------------------------------|
A|-------------------------------------------|-------------------------------------------|
F|-------------7--7--7--------------7--7--7--|-------------6--6--6--------------6--6--6--|
C|-------------------------------------------|-------------------------------------------|
G|-------------5--5--5--------------5--5--5--|-------------4--4--4--------------4--4--4--|
C|-0-0-0-0-0-0----------0-0-0-0-0-0----------|-0-0-0-0-0-0----------0-0-0-0-0-0----------|

Myles

D|-------------------------------------------|-------------------------------------------|
A|-------------------------------------------|-------------------------------------------|
F|-7--7--7--7--7--7--------------------------|-6--6--6--6--6--6--------------------------|
C|-------------------------------------------|-------------------------------------------|
G|-5--5--5--5--5--5--(x4)--------------------|-4--4--4--4--4--4--(x4)--------------------|
C|-------------------------------------------|-------------------------------------------|




Mark

D|-------------------------------------------|-------------------------------------------|
A|-------------------------------------------|-------------------------------------------|
F|-------------5--5--5--------------5--5--5--|-------------7--7--7--------------7--7--7--|
C|-------------3--3--3--------------3--3--3--|-------------5--5--5--------------5--5--5--|
G|-------------3--3--3--------------3--3--3--|-------------5--5--5--------------5--5--5--|
C|-3-3-3-3-3-3----------3-3-3-3-3-3----------|-5-5-5-5-5-5----------5-5-5-5-5-5----------|

Myles

D|-------------------------------------------|-------------------------------------------|
A|-------------------------------------------|-------------------------------------------|
F|-5--5--5--5--5--5--------------------------|-4--4--4--4--4--4--------------------------|
C|-------------------------------------------|-------------------------------------------|
G|-3--3--3--3--3--3--(x4)--------------------|-2--2--2--2--2--2--(x4)--------------------|
C|-------------------------------------------|-------------------------------------------|




Mark

D|-------------------------------------------|-------------------------------------------|
A|-------------------------------------------|-------------------------------------------|
F|-------------10-10-10-------------10-10-10-|-9-----------------------------------------|
C|-------------8--8--8--------------8--8--8--|-7-----------------------------------------|
G|-------------8--8--8--------------8--8--8--|-7-----------------------------------------|
C|-8-8-8-8-8-8-----------8-8-8--8-8----------|-7-----------------------------------------|

Myles

D|-------------------------------------------|-------------------------------------------|
A|-------------------------------------------|--------------------------------------15/--|
F|-3--3--3--3--3--3--------------------------|-2------------------------------------14/--|
C|-------------------------------------------|-2------------------------------------12/--|
G|-1--1--1--1--1--1--(x4)--------------------|-0-----------------------------------------|
C|-------------------------------------------|-------------------------------------------|

                                          ------

[Chorus]

Mark

D|---------------------------------------------------|---------------------------------------------------|
A|-3----3--3--3--3----3----3--3--3--3----------------|---------------------------------------------------|
F|-2----2--2--2--2----2----2--2--2--2----------------|-6----6--6--6--6----6----6--6--6--6----------------|
C|-0----0--0--0--0----0----0--0--0--0----------------|-7----7--7--7--7----7----7--7--7--7----------------|
G|-0----0--0--0--0----0----0--0--0--0----------------|-7----7--7--7--7----7----7--7--7--7--(x2)----------|
C|-0----0--0--0--0----0----0--0--0--0--(x2)----------|---------------------------------------------------|

Myles

D|---------------------------------------------------|---------------------------------------------------|
A|-3----3--3--3--3----3----3--3--3--3----------------|---------------------------------------------------|
F|-2----2--2--2--2----2----2--2--2--2----------------|-2----2--2--2--2----2----2--2--2--2----------------|
C|-0----0--0--0--0----0----0--0--0--0--(x2)----------|-2----2--2--2--2----2----2--2--2--2----------------|
G|---------------------------------------------------|-0----0--0--0--0----0----0--0--0--0--(x2)----------|
C|---------------------------------------------------|---------------------------------------------------|




Mark

D|---------------------------------------------------|---------------------------------------------------|
A|---------------------------------------------------|-6----6--6--6--6----------5----5--5--5--5----------|
F|-3----5----7----5b6--------3----5----7----8----6---|-5----5--5--5--5----------6----6--6--6--6----------|
C|---------------------------------------------------|-3----3--3--3--3----------7----7--7--7--7----------|
G|-1----3----5---------------1----3----5-------------|-3----3--3--3--3----------4----4--4--4--4--(x2)----|
C|---------------------------------------------------|-3----3--3--3--3--(x2)-----------------------------|

Myles

D|---------------------------------------------------|---------------------------------------------------|
A|--------------6-------------------------8------6---|---------------------------------------------------|
F|-3----5----7--8b10---------3----5----7--10b12--8b10|---------------------------------------------------|
C|---------------------------------------------------|-3----3--3--3--3----------7----7--7--7--7----------|
G|-1----3----5---------------1----3----5-------------|-3----3--3--3--3----------4----4--4--4--4--(x2)----|
C|---------------------------------------------------|-3----3--3--3--3--(x2)-----------------------------|

                                                    (x2)

                                                   ------

[Bridge]

Mark

D|---------------------------------------------------|---------------------------------------------------|
A|---------------------------------------------------|---------------------------------------------------|
F|-2---------------------2--2------------------------|-2-2-2---------------------------------------------|
C|-0---------------------0--0------------------------|-0-0-0---------------------------------------------|
G|-0---------------------0--0------------------------|-0-0-0---------------------------------------------|
C|-0---------------------0--0------------------------|-0-0-0--------------------11--12--14--/15--14--12--|

Myles

D|---------------------------------------------------|---------------------------------------------------|
A|---------------------------------------------------|---------------------------------------------------|
F|---------------------------------------------------|---------------------------------------------------|
C|---------------------------------------------------|---------------------------------------------------|
G|------5p0-------------5--------5p0---------/8-8-8--|-----5p0-------------5----4---5---7---/8---7---5---|
C|-0---0---8-7p5p0--5h7-----0---0---8--7p5p0---------|-0--0---8-7p5p0--5h7-------------------------------|




Mark

D|---------------------------------------------------|---------------------------------------------------|
A|---------------------------------------------------|---------------------------------------------------|
F|-2---------------------2--2------------------------|-2-2-2---------------------------------------------|
C|-0---------------------0--0------------------------|-0-0-0---------------------------------------------|
G|-0---------------------0--0------------------------|-0-0-0--------------------10--12--13--10--13--12---|
C|-0---------------------0--0------------------------|-0-0-0---------------------------------------------|

Myles

D|---------------------------------------------------|---------------------------------------------------|
A|---------------------------------------------------|---------------------------------------------------|
F|---------------------------------------------------|---------------------------------------------------|
C|---------------------------------------------------|---------------------------------------------------|
G|------5p0-------------5--------5p0---------/8-8-8--|-----5p0-------------5----4---5---7---/8---7---5---|
C|-0---0---8-7p5p0--5h7-----0---0---8--7p5p0---------|-0--0---8-7p5p0--5h7-------------------------------|




Mark

D|---------------------------------------------------|---------------------------------------------------|
A|---------------------------------------------------|---------------------------------------------------|
F|---------------------------------------------------|---------------------------------------------------|
C|---------------------------------------------------|---------------------------------------------------|
G|------5p0-------------5--------5p0---------/8-8-8--|-----5p0-------------5-----------------------------|
C|-0---0---8-7p5p0--5h7-----0---0---8--7p5p0---------|-0--0---8-7p5p0--5h7------11--12--14--/15--14--12--|

Myles

D|---------------------------------------------------|---------------------------------------------------|
A|---------------------------------------------------|---------------------------------------------------|
F|---------------------------------------------------|---------------------------------------------------|
C|---------------------------------------------------|---------------------------------------------------|
G|------5p0-------------5--------5p0---------/8-8-8--|-----5p0-------------5----4---5---7---/8---7---5---|
C|-0---0---8-7p5p0--5h7-----0---0---8--7p5p0---------|-0--0---8-7p5p0--5h7-------------------------------|




Mark

D|---------------------------------------------------|---------------------------------------------------|
A|---------------------------------------------------|---------------------------------------------------|
F|---------------------------------------------------|---------------------------------------------------|
C|---------------------------------------------------|---------------------------------------------------|
G|------5p0-------------5--------5p0---------/8-8-8--|-----5p0-------------5-----------------------------|
C|-0---0---8-7p5p0--5h7-----0---0---8--7p5p0---------|-0--0---8-7p5p0--5h7------11--12--14--/15--14--12--|

Myles

D|---------------------------------------------------|---------------------------------------------------|
A|---------------------------------------------------|---------------------------------------------------|
F|---------------------------------------------------|---------------------------------------------------|
C|---------------------------------------------------|---------------------------------------------------|
G|------5p0-------------5--------5p0---------/8-8-8--|-----5p0-------------5----4---5---7---/8---7---5---|
C|-0---0---8-7p5p0--5h7-----0---0---8--7p5p0---------|-0--0---8-7p5p0--5h7-------------------------------|




Mark

D|---------------------------------------------------|---------------------------------------|
A|---------------------------------------------------|---------------------------------------|
F|---------------------------------------------------|---------------------------------------|
C|---------------------------------------------------|---------------------------------------|
G|---------------------------------------------------|---------------------------------------|
C|-11--12--14--/17--15--14---11--12--14--/15--14--12-|-/19-19-19-17-17-17-15-15-15-14-14-14--|

Myles

D|---------------------------------------------------|---------------------------------------|
A|---------------------------------------------------|---------------------------------------|
F|---------------------------------------------------|---------------------------------------|
C|---------------------------------------------------|---------------------------------------|
G|---------------------------------------------------|---------------------------------------|
C|-4---5---7---/10---8---7----4---5---7---/8---7---5-|-/12-12-12-10-10-10-8-8-8-7-7-7--------|

                                                  ------

[Myles' Solo]

Mark

D|-------------------------|-------------------------|-------------------------|-------------------------|
A|-------------------------|-------------------------|-------------------------|--10---10-10-10-10-------|
F|-3---3-3-3-3-------------|--2---2-2-2-2------------|--13---13-13-13-13-------|--9----9--9--9--9--------|
C|-5---5-5-5-5-------------|--3---3-3-3-3------------|--14---14-14-14-14-------|--7----7--7--7--7--------|
G|-5---5-5-5-5-------------|--3---3-3-3-3------------|--14---14-14-14-14-------|--7----7--7--7--7--------|
C|-5---5-5-5-5--(x2)-------|--3---3-3-3-3--(x2)------|--14---14-14-14-14--(x2)-|--7----7--7--7--7--(x2)--|

Repeats this throughout the solo, except at the end where the A repeats.


Myles

  Gm                        F                         E                         A
D|-----------------8-------|-----------------8-------|-------------------------|-----------------------17|
A|-10b11~~~------------pb11br10~~----------------10--|-9~~~----------7--9------|pb10br9b10~~------15-18--|
F|-------------------------|-------------------------|-------------------------|-------------------------|
C|-------------------------|-------------------------|-------------------------|-------------------------|
G|-------------------------|-------------------------|-------------------------|-------------------------|
C|-------------------------|-------------------------|-------------------------|-------------------------|

  Gm                        F                         E                         A
D|-17b18~~-------18b20br18-|-17~~~---------17b20br17-|-16~~~-----------14--16--|pb17br16-pb17~~----------|
A|-------------------------|-------------------------|-------------------------|-------------------------|
F|-------------------------|-------------------------|-------------------------|-------------------------|
C|-------------------------|-------------------------|-------------------------|-------------------------|
G|-------------------------|-------------------------|-------------------------|-------------------------|
C|-------------------------|-------------------------|-------------------------|-------------------------|

  Gm                                                  F
D|--pb18br17--15--17p15------15----------------------|-pb17br15--13h15--13------13-----------------------|
A|-----------------------18------18--17--18--17--15--|----------------------17------17--15--17--15p13----|
F|---------------------------------------------------|---------------------------------------------------|
C|---------------------------------------------------|---------------------------------------------------|
G|---------------------------------------------------|---------------------------------------------------|
C|---------------------------------------------------|---------------------------------------------------|

  E                                                   A
D|---------------------------12--16--12--------------|---------------------------------------------------|
A|-----------------------12--------------12----------|---------------------------------------------------|
F|-------------------13----------------------13------|--16b18br16b18br16b18br16--16~\--------------------|
C|---------------14------------------------------14--|---------------------------------------------------|
G|-------11--14--------------------------------------|---------------------------------------------------|
C|---14----------------------------------------------|---------------------------------------------------|

  Gm                        F                         E                         A
                                                                                    N---------------------
D|-------------------------|-------------------------|-------------------------|----17-------------------|
A|--13b15br13--13~~--------|--15b17br15--15~~--------|--17b18br17--17~~--------|-------------------------|
F|-------------------------|-------------------------|-------------------------|-------------------------|
C|-------------------------|-------------------------|-------------------------|-------------------------|
G|-------------------------|-------------------------|-------------------------|-------------------------|
C|-------------------------|-------------------------|-------------------------|-------------------------|
                                                                               Pick extremely fast, by ear
  A
  N-------------------------------------------------------------------------------------------------------
D|-18-17-15-17-15-13-15-13-15-17-15-13-15-13-12-13-|12-13-15-13-12-13-12-10-12-10-12-13-12-10-12-10-9-10-|
A|-------------------------------------------------|-----------------------------------------------------|
F|-------------------------------------------------|-----------------------------------------------------|
C|-------------------------------------------------|-----------------------------------------------------|
G|-------------------------------------------------|-----------------------------------------------------|
C|-------------------------------------------------|-----------------------------------------------------|
  Use hammer-ons, pull-offs while tremolo picking

  A
  N------------------------------------|
D|-9-10-12-10-9-10-9-6-9-6-9-10-9-6-9-6-5-6--5--5--|5----0----5---9~----------|-10~----------12~---------|
A|-------------------------------------------------|-----------------------10-|---------10-----------10--|
F|-------------------------------------------------|-------------------9------|-----9------------9-------|
C|-------------------------------------------------|--------------------------|--------------------------|
G|-------------------------------------------------|--------------------------|--------------------------|
C|-------------------------------------------------|--------------------------|--------------------------|

  A
D|-/13--12--10--/15--13--12|--/17-17-17-18-18-18-20-20-20-21-21-21-21b22~~~----|
A|-------------------------|---------------------------------------------------|
F|-------------------------|---------------------------------------------------|
C|-------------------------|---------------------------------------------------|
G|-------------------------|---------------------------------------------------|
C|-------------------------|----------------------------------------------\----|

                          Mark
 
                          D|---------------------------------------------------|
                          A|---------------------------------------------------|
                          F|---------------------------------------------------|
                          C|---------------------------------------------------|
                          G|-13--12--0--12--10--0--10--8--0--8--7--0--5--------|
                          C|-----------------------------------------------5b6-|

                                               ------

[Heavy Section \m/]

Mark

D|---------------------------------------------------|---------------------------------------------------|
A|---------------------------------------------------|---------------------------------------------------|
F|-2-2-2-2------2-2-2-2------2-2-2-2-2-2-2-2-2-2-----|-2-2-2-2------2-2-2-2------2-2-2-2-2-2-------------|
C|-0-0-0-0------0-0-0-0------0-0-0-0-0-0-0-0-0-0-----|-0-0-0-0------0-0-0-0------0-0-0-0-0-0-------------|
G|-0-0-0-0------0-0-0-0------0-0-0-0-0-0-0-0-0-0-----|-0-0-0-0------0-0-0-0------0-0-0-0-0-0-------------|
C|-0-0-0-0------0-0-0-0------0-0-0-0-0-0-0-0-0-0-----|-0-0-0-0------0-0-0-0------0-0-0-0-0-0-1b3r--------|

Myles

D|---------------------------------------------------|---------------------------------------------------|
A|---------------------------------------------------|---------------------------------------------------|
F|-2-2-2-2------2-2-2-2------2-2-2-2-2-2-2-2-2-2-----|-2-2-2-2------2-2-2-2------2-2-2-2-2-2-2-2-2-2-----|
C|-0-0-0-0------0-0-0-0------0-0-0-0-0-0-0-0-0-0-----|-0-0-0-0------0-0-0-0------0-0-0-0-0-0-0-0-0-0-----|
G|-0-0-0-0------0-0-0-0------0-0-0-0-0-0-0-0-0-0-----|-0-0-0-0------0-0-0-0------0-0-0-0-0-0-0-0-0-0-----|
C|-0-0-0-0------0-0-0-0------0-0-0-0-0-0-0-0-0-0-----|-0-0-0-0------0-0-0-0------0-0-0-0-0-0-0-0-0-0-----|




Mark

D|---------------------------------------------------|---------------------------------------------------|
A|---------------------------------------------------|---------------------------------------------------|
F|-2-2-2-2------2-2-2-2------2-2-2-2-2-2-2-2-2-2-----|-2-2-2-2------2-2-2-2------2-2-2-2-2-2-------------|
C|-0-0-0-0------0-0-0-0------0-0-0-0-0-0-0-0-0-0-----|-0-0-0-0------0-0-0-0------0-0-0-0-0-0-------------|
G|-0-0-0-0------0-0-0-0------0-0-0-0-0-0-0-0-0-0-----|-0-0-0-0------0-0-0-0------0-0-0-0-0-0-------------|
C|-0-0-0-0------0-0-0-0------0-0-0-0-0-0-0-0-0-0-----|-0-0-0-0------0-0-0-0------0-0-0-0-0-0-1b3r--------|

Myles

D|---------------------------------------------------|---------------------------------------------------|
A|---------------------------------------------------|---------------------------------------------------|
F|-10-10-10--(x2)-7-7-7--(x2)-9-9-9--(x2)-6-6-6--(x2)|-8-8-8--(x2)-5-5-5--(x2)-7-7-7-7-7-7--(x2)---------|
C|---------------------------------------------------|---------------------------------------------------|
G|---------------------------------------------------|---------------------------------------------------|
C|---------------------------------------------------|---------------------------------------------------|




Mark

D|---------------------------------------------------|---------------------------------------------------|
A|---------------------------------------------------|---------------------------------------------------|
F|-2-2-2-2------2-2-2-2------2-2-2-2-2-2-2-2-2-2-----|-2-2-2-2------2-2-2-2------2-2-2-2-2-2-------------|
C|-0-0-0-0------0-0-0-0------0-0-0-0-0-0-0-0-0-0-----|-0-0-0-0------0-0-0-0------0-0-0-0-0-0-------------|
G|-0-0-0-0------0-0-0-0------0-0-0-0-0-0-0-0-0-0-----|-0-0-0-0------0-0-0-0------0-0-0-0-0-0-------------|
C|-0-0-0-0------0-0-0-0------0-0-0-0-0-0-0-0-0-0-----|-0-0-0-0------0-0-0-0------0-0-0-0-0-0-1b3r--------|

Myles

D|---------------------------------------------------|---------------------------------------------------|
A|---------------------------------------------------|---------------------------------------------------|
F|-10-10-10--(x2)-7-7-7--(x2)-9-9-9--(x2)-6-6-6--(x2)|-8-8-8--(x2)-5-5-5--(x2)-7-7-7-7-7-7--(x2)---------|
C|---------------------------------------------------|---------------------------------------------------|
G|---------------------------------------------------|---------------------------------------------------|
C|---------------------------------------------------|---------------------------------------------------|




Mark

D|---------------------------------------------------|---------------------------------------------------|
A|---------------------------------------------------|---------------------------------------------------|
F|---------------------------------------------------|---------------------------------------------------|
C|---------------------------------------------------|---------------------------------------------------|
G|---------------------------------------------------|---------------------------------------------------|
C|-12-12-12-0--14-14-14-0--15-15-15-0--10b11--(x5)-0-|-12-12-12-0--14-14-14-0--15-15-15-0--10b11--(x5)-0-|
                                       Pick while bending

Myles

D|-------------12-12--(x3)-------------13-13--(x3)---|-------------10-10--(3)----------------------------|
A|-10-10--(x3)-------------11-11--(x2)---------------|-12-12--(x3)-------------13b15--(x12)--------------|
F|---------------------------------------------------|---------------------------------------------------|
C|---------------------------------------------------|---------------------------------------------------|
G|---------------------------------------------------|---------------------------------------------------|
C|---------------------------------------------------|---------------------------------------------------|
                                                                                   Pick while bending



Mark

D|---------------------------------------------------|---------------------------------------------------|
A|---------------------------------------------------|---------------------------------------------------|
F|---------------------------------------------------|---------------------------------------------------|
C|---------------------------------------------------|---------------------------------------------------|
G|---------------------------------------------------|---------------------------------------------------|
C|-12-12-12-0--14-14-14-0--15-15-15-0--10b11--(x5)-0-|-12-12-12-0--8--8--8--0--7--7--7--0--10b11--(x5)---|
                                       Pick while bending

Myles

D|-------------12-12--(x3)-------------13-13--(x3)---|-------------10-10--(x3)---------------------------|
A|-10-10--(x3)-------------11-11--(x2)---------------|-12-12--(x3)-------------13b15--(x6)~~~~~~~~~------|
F|---------------------------------------------------|---------------------------------------------------|
C|---------------------------------------------------|---------------------------------------------------|
G|---------------------------------------------------|---------------------------------------------------|
C|---------------------------------------------------|---------------------------------------------------|
                                                                                   Pick while bending



Mark

D|----------------------------------------------------|
A|----------------------------------------------------|
F|-2-2-2-2------2-2-2-2------2-2-2-2-2-2-2-2-2-2-2-2--|
C|-0-0-0-0------0-0-0-0------0-0-0-0-0-0-0-0-0-0-0-0--|
G|-0-0-0-0------0-0-0-0------0-0-0-0-0-0-0-0-0-0-0-0--|
C|-0-0-0-0------0-0-0-0------0-0-0-0-0-0-0-0-0-0-0-0--|

Myles

D|----------------------------------------------------|
A|---(b15)~~~-----------------------------------------|
F|----------------------------------------------------|
C|----------------------------------------------------|
G|----------------------------------------------------|
C|----------------------------------------------------|
     Sustain

                                                   ------

[Verse]

Mark

D|-------------0-----------------------0---------|-------------0---------------------------------|
A|-6---------------6-------6---------------6-----|-5-----------------------5---------------------|
F|---------7-----------------------7-----------7-|---------6-----------6-----------6-------------|
C|-----------------------------------------------|-----------------------------------------------|
G|-5---5---5---5---5---5---5---5---5---5---5---5-|-4---4---4---4---4---4---4---4---4-------------|
C|-----------------------------------------------|-----------------------------------------------|

Myles

D|-----------------------------------------------|-----------------------------------------------|
A|-----------------------------------------------|-----------------------------------------------|
F|-7--7--7--7--7--7------------------------------|-6--6--6--6--6--6------------------------------|
C|-----------------------------------------------|-----------------------------------------------|
G|-5--5--5--5--5--5--(x4)------------------------|-4--4--4--4--4--4--(x4)------------------------|
C|-----------------------------------------------|-----------------------------------------------|




Mark

D|-------------8-----------------------8---------|-------------13----------12---------------------|
A|-8-----------------------8---------------------|-10------------------10-------------------------|
F|---------10----------10----------10----------10|---------12-------------------------------------|
C|-----------------------------------------------|------------------------------------------------|
G|-8---8---8---8---8---8---8---8---8---8---8---8-|-10--10--10--10--10--10--10---------------------|
C|-----------------------------------------------|------------------------------------------------|

Myles

D|-----------------------------------------------|------------------------------------------------|
A|-----------------------------------------------|------------------------------------------------|
F|-5--5--5--5--5--5------------------------------|-4--4--4--4--4--4-------------------------------|
C|-----------------------------------------------|------------------------------------------------|
G|-3--3--3--3--3--3--(x4)------------------------|-2--2--2--2--2--2--(x2)-------------------------|
C|-----------------------------------------------|------------------------------------------------|

                                                (x2)

                                               ------

Mark

D|---------------------------------------------------|
A|---------------------------------------------------|
F|-3----5----7----5b6--------3----5----7-------------|
C|---------------------------------------------------|
G|-1----3----5---------------1----3----5----3b5/-----|
C|---------------------------------------------------|

Myles

D|---------------------------------------------------|
A|--------------6------------------------------------|
F|-3----5----7--8b10---------3----5----7----7/-------|
C|---------------------------------------------------|
G|-1----3----5---------------1----3----5----5/-------|
C|---------------------------------------------------|


                                                  ------

[Chorus]

Mark

D|---------------------------------------------------|---------------------------------------------------|
A|-3----3--3--3--3----3----3--3--3--3----------------|---------------------------------------------------|
F|-2----2--2--2--2----2----2--2--2--2----------------|-6----6--6--6--6----6----6--6--6--6----------------|
C|-0----0--0--0--0----0----0--0--0--0----------------|-7----7--7--7--7----7----7--7--7--7----------------|
G|-0----0--0--0--0----0----0--0--0--0----------------|-7----7--7--7--7----7----7--7--7--7--(x2)----------|
C|-0----0--0--0--0----0----0--0--0--0--(x2)----------|---------------------------------------------------|

Myles

D|---------------------------------------------------|---------------------------------------------------|
A|-3----3--3--3--3----3----3--3--3--3----------------|---------------------------------------------------|
F|-2----2--2--2--2----2----2--2--2--2----------------|-2----2--2--2--2----2----2--2--2--2----------------|
C|-0----0--0--0--0----0----0--0--0--0--(x2)----------|-2----2--2--2--2----2----2--2--2--2----------------|
G|---------------------------------------------------|-0----0--0--0--0----0----0--0--0--0--(x2)----------|
C|---------------------------------------------------|---------------------------------------------------|




Mark

D|---------------------------------------------------|---------------------------------------------------|
A|---------------------------------------------------|-6----6--6--6--6----------5----5--5--5--5----------|
F|-3----5----7----5b6--------3----5----7----8----6---|-5----5--5--5--5----------6----6--6--6--6----------|
C|---------------------------------------------------|-3----3--3--3--3----------7----7--7--7--7----------|
G|-1----3----5---------------1----3----5-------------|-3----3--3--3--3----------4----4--4--4--4--(x2)----|
C|---------------------------------------------------|-3----3--3--3--3--(x2)-----------------------------|

Myles

D|---------------------------------------------------|---------------------------------------------------|
A|--------------6-------------------------8------6---|---------------------------------------------------|
F|-3----5----7--8b10---------3----5----7--10b12--8b10|---------------------------------------------------|
C|---------------------------------------------------|-3----3--3--3--3----------7----7--7--7--7----------|
G|-1----3----5---------------1----3----5-------------|-3----3--3--3--3----------4----4--4--4--4--(x2)----|
C|---------------------------------------------------|-3----3--3--3--3--(x2)-----------------------------|

                                                    (x2)

                                                   ------

[Mark's Solo]

Mark

D|---------------------------------------------------|---------------------------------------------------|
A|-13b15~~~---------15b17~~~---------17b18~~~--------|-15b17~~~---------15b17---15---14~~~---------------|
F|---------------------------------------------------|---------------------------------------------------|
C|---------------------------------------------------|---------------------------------------------------|
G|---------------------------------------------------|---------------------------------------------------|
C|---------------------------------------------------|--------------------------------------------12/----|

Myles

D|---------------------------------------------------|---------------------------------------------------|
A|-3----3--3--3--3----3----3--3--3--3----------------|---------------------------------------------------|
F|-2----2--2--2--2----2----2--2--2--2----------------|-6----6--6--6--6----6----6--6--6--6----------------|
C|-0----0--0--0--0----0----0--0--0--0----------------|-7----7--7--7--7----7----7--7--7--7----------------|
G|-0----0--0--0--0----0----0--0--0--0----------------|-7----7--7--7--7----7----7--7--7--7--(x2)----------|
C|-0----0--0--0--0----0----0--0--0--0--(x2)----------|---------------------------------------------------|




Mark

D|------------------------------------------20b22----|---------------------------------------------------|
A|---------------------------/11--13---15----pb22br20|p18--20b22br20-18----8b10--8b10br8p6-----6------6/-|
F|--------------10/----------------------------------|--------------------------------------9-----9------|
C|------10---12--------------------------------------|---------------------------------------------------|
G|-/13-----------------------------------------------|---------------------------------------------------|
C|---------------------------------------------------|---------------------------------------------------|

Myles

D|---------------------------------------------------|---------------------------------------------------|
A|--------------6-------------------------8------6---|---------------------------------------------------|
F|-3----5----7--8b10---------3----5----7--10b12--8b10|---------------------------------------------------|
C|---------------------------------------------------|-3----3--3--3--3----------7----7--7--7--7----------|
G|-1----3----5---------------1----3----5-------------|-3----3--3--3--3----------4----4--4--4--4--(x2)----|
C|---------------------------------------------------|-3----3--3--3--3--(x2)-----------------------------|




Mark

D|---------------------------------------------------|---------------------------------------------------|
A|---------------------------------------------------|---------------------------------------------------|
F|---------------------------------------------------|---------------------------------------------------|
C|---------------------------------------------------|--------7--------------------7-------------7-------|
G|-5~~~----------------------7------------7b8br7-----|-7-----(7)-----7------5------4------5------4-----5-|
C|--------------0------------------------------------|---------------------------------------------------|

Myles

D|---------------------------------------------------|---------------------------------------------------|
A|-3----3--3--3--3----3----3--3--3--3----------------|---------------------------------------------------|
F|-2----2--2--2--2----2----2--2--2--2----------------|-6----6--6--6--6----6----6--6--6--6----------------|
C|-0----0--0--0--0----0----0--0--0--0----------------|-7----7--7--7--7----7----7--7--7--7----------------|
G|-0----0--0--0--0----0----0--0--0--0----------------|-7----7--7--7--7----7----7--7--7--7--(x2)----------|
C|-0----0--0--0--0----0----0--0--0--0--(x2)----------|---------------------------------------------------|




Mark

D|-----------------------------------------------------|---------------------------------------------------|
A|-13----13----------------------13----13--------------|---------------------------------------------------|
F|-12b14-12b14br12-10---10-12----12b14-pb14br12p10-----|------12-14p12--------12-14p12--------12-14p12-----|
C|--------------------12---------------------------12--|-12-15--------15-12-15--------15-12-15--------15-12|
G|-----------------------------------------------------|---------------------------------------------------|
C|-----------------------------------------------------|---------------------------------------------------|

Myles

D|-----------------------------------------------------|---------------------------------------------------|
A|--------------6--------------------------8-----6-----|---------------------------------------------------|
F|-3----5----7--8b10-------------3----5----7-10b12-8b10|---------------------------------------------------|
C|-----------------------------------------------------|-3----3--3--3--3----------3----3--3--3--3----------|
G|-1----3----5-------------------1----3----5-----------|-3----3--3--3--3----------3----3--3--3--3----------|
C|-----------------------------------------------------|-3----3--3--3--3----------3----3--3--3--3----------|




Mark

D|---------------------------------------------------|-----------------------------------------/10-10-10-|
A|-----------------------13--------------------------|---------------------------------------------------|
F|---12-14----14/12-10-----12b14br12p10-10-----10----|---------------------------------------------------|
C|-15------------------12-----------------12p10--12~~|---------------------------------------------------|
G|---------------------------------------------------|---------------------------------------------------|
C|---------------------------------------------------|---------------------------------------------------|

Myles

D|---------------------------------------------------|---------------------------------------------------|
A|---------------------------------------------------|---------------------------------------------------|
F|---------------------------------------------------|---------------------------------------------------|
C|-7----7--7--7--7----------7----7--7--7--7----------|---------------------------------------------------|
G|-4----4--4--4--4----------4----4--4--4--4----------|-5-5-5-5-5-5-0-0----------5-5-5-5-5-5-0-0----------|
C|---------------------------------------------------|-----------------3-3-0-0------------------3-3-0-0--|




Mark

D|-10h13p10--------------------------------------------------------------------------------------------|
A|-----------13p10h11h13p11p10-------------------------------------------------------------------------|
F|------------------------------14p10h12h14p12p10/9h10h12p10p9-----------------------------------------|
C|--------------------------------------------------------------12p8h10h12p10p8/7----------------------|
G|--------------------------------------------------------------------------------10p8p7/5-7b8br7p5----|
C|-----------------------------------------------------------------------------------------------------|
  Crazy legato

Myles

D|-----------------------------------------------------------------------------------------------------|
A|-----------------------------------------------------------------------------------------------------|
F|-----------------------------------------------------------------------------------------------------|
C|-----------------------------------------------------------------------------------------------------|
G|--8----8----8----8----8----8----7----7----5----5----4----4----10----10----10----10----10----10-------|
C|------------------------------------------------------------------------------------------------7b8-7|




Mark

D|--------------------------------------------------|--------------------------------------------------|
A|--------------------------------------------------|--------------------------------------------------|
F|-5b7PH--------------------------------------------|--------------------------------------------------|
C|--------------------------------------------------|--------------------------------------------------|
G|--------------------------------------------------|-8-8-8-8-8-8-7-7-5-5-4-4--10-10-10-10-10-10-------|
C|--------------------------------------------------|--------------------------------------------7b8-7-|

Myles

D|--------------------------------------------------|--------------------------------------------------|
A|--------------------------------------------------|--------------------------------------------------|
F|--------------------------------------------------|--------------------------------------------------|
C|--------------------------------------------------|--------------------------------------------------|
G|-5-5-5-5-5-5-0-0----------5-5-5-5-5-5-0-0---------|-8-8-8-8-8-8-7-7-5-5-4-4--10-10-10-10-10-10-------|
C|-----------------3-3-0-0------------------3-3-0-0-|---------------------------------------------/----|

                                                  ------

[Outro]

Mark

D|---------------------------------------------------|-------------------------------------------------|
A|---------------------------------------------------|-------------------------------------------------|
F|-2-2-2-2------2-2-2-2------2-2-2-2-2-2-2-2-2-2-----|-2-2-2-2------2-2-2-2------2-2-2-2-2-2-----------|
C|-0-0-0-0------0-0-0-0------0-0-0-0-0-0-0-0-0-0-----|-0-0-0-0------0-0-0-0------0-0-0-0-0-0-----------|
G|-0-0-0-0------0-0-0-0------0-0-0-0-0-0-0-0-0-0-----|-0-0-0-0------0-0-0-0------0-0-0-0-0-0-0h1-1-0---|
C|-0-0-0-0------0-0-0-0------0-0-0-0-0-0-0-0-0-0-----|-0-0-0-0------0-0-0-0------0-0-0-0-0-0-----------|

Myles

D|--------------------------------------------------|--------------------------------------------------|
A|--------------------------------------------------|--------------------------------------------------|
F|--------------------------------------------------|--------------------------------------------------|
C|--------------------------------------------------|--------------------------------------------------|
G|-5-5-5-5-5-5-0-0----------5-5-5-5-5-5-0-0---------|-8-8-8-8-8-8-7-7-5-5-4-4--10-10-10-10-10-10-------|
C|-----------------3-3-0-0------------------3-3-0-0-|--------------------------------------------7p8-7-|




Mark

D|---------------------------------------------------|--------------------------------------------------|
A|---------------------------------------------------|--------------------------------------------------|
F|-2-2-2-2------2-2-2-2------2-2-2-2-2-2-2-2-2-2-----|-2-2-2-2------2-2-2-2------2-2-2-2-2-2------------|
C|-0-0-0-0------0-0-0-0------0-0-0-0-0-0-0-0-0-0-----|-0-0-0-0------0-0-0-0------0-0-0-0-0-0------------|
G|-0-0-0-0------0-0-0-0------0-0-0-0-0-0-0-0-0-0-----|-0-0-0-0------0-0-0-0------0-0-0-0-0-0------------|
C|-0-0-0-0------0-0-0-0------0-0-0-0-0-0-0-0-0-0-----|-0-0-0-0------0-0-0-0------0-0-0-0-0-0-----7p8-8-7|

Myles

D|--------------------------------------------------|---------------------------------------------------|
A|--------------------------------------------------|---------------------------------------------------|
F|--------------------------------------------------|---------------------------------------------------|
C|--------------------------------------------------|---------------------------------------------------|
G|-5-5-5-5-5-5-0-0----------5-5-5-5-5-5-0-0---------|-8-8-8-8-8-8-7-7-5-5-4-4--10-10-10-10-10-10--------|
C|-----------------3-3-0-0------------------3-3-0-0-|--------------------------------------------7p8-8-7|




Mark

D|--------------------------------------------------|
A|--------------------------------------------------|
F|-------------------------------2------------------|
C|-------------------------------0------------------|
G|-------------------------------0------------------|
C|-7p8-8-7---7p8-8-7---7p8-8-7---0------------------|

Myles

D|--------------------------------------------------|
A|--------------------------------------------------|
F|-------------------------------2------------------|
C|-------------------------------0------------------|
G|-------------------------------0------------------|
C|-7p8-8-7---7p8-8-7---7p8-8-7---0------------------|

                                                 ------

***********************************
| b   Bend
| ~   Vibrato
| pb  Pre-bend
| br  Bend release
| p   Pull-off
| h   Hammer-on
| \   Slide down
| N-| Tremolo picking Section
| /   Slide up
***********************************
Suggest correction
comments
print report bad tab
9 comments total. Showing first comments.
0 reply
BudzMJJ 20 Nov 15, 2016 07:50 PM

Dude, really? Did you even listen to the song? Is this Myles or Marks solo? If it's Myles', where is the last part?

0 reply
Tiesco_666 105 Dec 02, 2016 06:40 PM

Can you make the whole tab? Please!!!

0 reply
dariociolini 10 Feb 07, 2017 09:27 AM

Great Tab!! but i think in the bridge part, myles pick the G string on the 8th fret..Because the sound is too high. Anyway is great tab!

P.S sorry for the english :D

guest
You may want to rate the tab now too:
select rating
Wanna post a correction for this tab? Suggest correction