Oops, an error
Loading. Please wait.

The Other Side Tab

version 1
version 1

Whole song

  • First Version - Used some help from comments on jack.tyler-prime's tab.
  • The full guitar tab of The Other Side, based on th... Show more

Interactive

1,456 views 60 this week
9 commentsread comments
1 2 3 4 5
2 more votes to show rating
add to favorites
launch autoscroll
font size
0
reset
how to read this tab
guitar tuner
Autoscroll
slow
fast
+/-
esc
set tempo
stop
Help us to improve Ultimate-Guitar.com Take our survey!
×
Author
Difficulty
Tuning
intermediate
B F# B E G# C#
Can't wait for this album to come out! My new favourite from this album so far! :D

[Intro] 

C#|---------------------------------------------------------------------------|
G#|---------------------------------------------------------------------------|
E |------------------2-2----------------------2-4p2-2-------------------------|(x2)
B |---------------------------------------------------------------------------|
F#|-----4-4/6-7-6-4-3-3----------4-4/6-7-6-4-3-----3--------------------------|
B |-0/2--2--------------------0/2-2-------------------------------------------|
(During intro)
C#|--------------------|
G#|--------------------|
E |--------------------|
B |--------------------|
F#|--------------------|
B |-0-0-1b--0-0-3-2-0~-|


[Intro/Verse]

C#|----------------------------------------------------------------------|
G#|----------------------------------------------------------------------|
E |----------------------------------------------------------------------|
B |-------2-2-2-------2-2-2--------9-------9--------2-2-2-------2-2-2----|
F#|-------4-4-4-------4-4-4-------11-------11-------4-4-4-------4-4-4----|
B |-0-0-0-5-5-5-0-0-0-5-5-5-0-0-0-12-0-0-0-12-0-0-0-5-5-5-0-0-0-5-5-5--0~|

[Pre-Chorus]

C#|------------------------------------------------|
G#|------------------------------------------------|
E |--6/5-5/4-4/3-3/2------6-6-6-6-13-13-13-13--6---|
B |-----------------------5-5-5-5-12-12-12-12--6---|
F#|--4/3-3/2-2/1-1/0------4-4-4-4-11-11-11-11--4---|(Don't trust me on the last bits)
B |-0---0---0---0---(x3)--0-0-0-0-0--0--0--0---0---|


[Chorus] (From what I could make out)

C#|---------------------------------------------------------------------------|
G#|---------------------------------------------------------------------------|
E |---------------------------------------------------------------------------|
B |---------------------------------------------------------------------------|
F#|---------------------------------------------------------------------------|
B |-3-0-3b0-5-0-8~-7-5(x3)-8-8-8-8-8-8-10-8-7-7-7-7-3-3-3-3-0-----------------|

[Other Guitar before song goes back into verse]

C#|-17-17-17-17-17-16-16-16-16-16---|
G#|---------------------------------|
E |---------------------------------|
B |---------------------------------|
F#|---------------------------------|
B |---------------------------------|


[Bridge]

C#|---------------------------------------| C#|--------------------------------------|
G#|-14b(x16)-18b(x16)-14b(x16)-21b(x16)---| G#|-14~14-13-12-----------13~------------|[Bridge riff](x4)
E |---------------------------------------| E |------------13~11-13-11---11h13p11-8b-|
B |---------------------------------------| B |--------------------------------------|
F#|---------------------------------------| F#|--------------------------------------|
B |---------------------------------------| B |--------------------------------------|

C#|--------------------------------|
G#|--------------------------------|
E |--------------------------------|
B |--------------------------------|
F#|----4-4/6-7-6-4-3b--------------|
B |-0-2-2--------------------------|

[Outro] Basically repeat the bridge, but when ending the bridge riff at the end do this,
just to replace the fading out:

C#|------------------------------------------|
G#|-14~-14-13-12-----------13~---------------|
E |-------------13~11-13-11---11h13p11-8b-6~-|
B |------------------------------------------|
F#|------------------------------------------|
B |------------------------------------------|


************************************

| x   Dead note
| g   Grace note
| (n) Ghost note
| h   Hammer-on
| p   Pull-off
| r   Release
| >   Accented note
| t   Tapping
| b   Bend
| br  Bend release
| pb  Pre-bend
| pbr Pre-bend release
| /   Slide up
| \   Slide down
| ~   Vibrato
| s   Slap
| P   Pop
| PM  Palm mute
| TR  Trill
| N   Tremolo

************************************
Suggest correction
Give kudos to tab author, rate the tab!
1 2 3 4 5
comments
print report bad tab
9 comments total. Showing first comments.
+1 reply
Dolo1993 141 Oct 03, 2016 09:34 PM

The tuning is wrong. It's A# G# C# F# A# D#

Here are the parts I managed to figure out:

Intro
eb|--------------------------------------------------|
Bb|-------------0------------------------------------|
Gb|---------4s6---6------0---0-----------------------|
Db|-------0---------0--------------------------------|
Ab|-----2--------------1---1-------------------------|
Bb|---0------------------------0-0-1-0-0-1--0--------|
* * * *
eb|--------------------------------------------------|
Bb|-------------0------------------------------------|
Gb|---------4s6---6------0--2p0-0--------------------|
Db|-------0---------0--------------------------------|
Ab|-----2--------------1-----------------------------|
Bb|---0---------------------------0-0-1-0-0-1--0-----|
* * * *
eb|----------------------------------------------------------|
Bb|----------------------------------------------------------|
Gb|----------------------------------------------------------|
Db|----------------------------------------------------------|
Ab|---------8-8-8-------8-8-8----------------8-8-8-----------|
Bb|---0-0-0-6-6-6-0-0-0-6-6-6-0-0-000--0-0-0-6-6-6-000-000---|
* * * * * * * * *** * * * *** ***
eb|--------------------------------------------------------------------|
Bb|--------------------------------------------------------------------|
Gb|--------------------------------------------------------------------|
Db|--------------------------------------------------------------------|
Ab|---------12-12-12-------12-12-12----------------12-12-12------------|
Bb|---0-0-0-10-10-10-0-0-0-10-10-10-0-0-000--0-0 0-10-10-10--000-000---|
* * * * * * * * *** * * * *** ***
Prechorus

eb|--------------------------------------------------------------------------------|
Bb|--------------------------------------------------------------------------------|
Gb|--------------------------------------------------------------------------------|
Db|--------------------------------------------------------------------------------|
Ab|----14-13---13-12---12-11---11-10----------14-13---13-12---12-11---11-10--------|
Bb|--0-------0-------0-------0-------0-0-0--0-------0-------0-------0-------0-0-0--|
* * * * * * * * * * * * * *

Bridge lead

eb|--------------------------------------------------------------------------------|
Bb|--13p12-13p12-13p12-13p12--numerous times----17p16-17p16-17p16-17p16------------|
Gb|--------------------------------------------------------------------------------|
Db|--------------------------------------------------------------------------------|
Ab|--------------------------------------------------------------------------------|
Bb|--------------------------------------------------------------------------------|

0 reply
jack.tyler-prime 297 Oct 04, 2016 03:23 PM

Tremonti says himself it's in Drop B http://www.musicradar.com/news/guitars/myles-kennedy-and-mark-tremonti-talk-alter-bridges-the-last-hero-track-by-track-642777

+1 reply
Dolo1993 141 Oct 04, 2016 04:10 PM

“I was always on the fence when you’re in drop B tuning - the drop B tuning we use where it’s just the bottom string tuned to B - about playing a powerchord shape on the low two strings"

guest
You may want to rate the tab now too:
select rating
Wanna post a correction for this tab? Suggest correction