Oops, an error
Loading. Please wait.

The Other Side Tab

version 3
version 3

Whole song

  • First Version - Used some help from comments on jack.tyler-prime's tab.
  • The full guitar tab of The Other Side, based on th... Show more

Interactive

442 views 33 this week
no commentswrite comment
1 2 3 4 5
2 more votes to show rating
add to favorites
launch autoscroll
font size
0
reset
how to read this tab
guitar tuner
Autoscroll
slow
fast
+/-
esc
set tempo
stop
Help us to improve Ultimate-Guitar.com Take our survey!
×
Author
Difficulty
Tuning
intermediate
D# G# C# F# A# D#
About this tab version
The full guitar tab of The Other Side, based on the album version of The Last Hero. All the guitars parts (Myles and Mark). Was this info helpful? Yes No
Title: The Other Side
Artist: Alter Bridge
Album: Tab by Sounds Of The Fox
Tempo = 157
Tabbed by Sounds of the Fox


TUNING : This is a half-step down but with a A# on the lower string (common Alter Bridge tuning)


[Intro]
(I tabbed this section as a one guitar with the clean and the distortion 
but you can separate them if you want)

D#|----------------|------------------------------|----------------|----------------------------|
A#|----------------|------------------------------|----------------|----------------------------|
F#|----------------|------------------------------|-----0-----0----|----------------------------|
C#|----------------|------------------------------|----------------|----------------------------|
G#|--------2-------|--2s-4h----5------4s-------2--|--1-----1-------|----------------------------|
A#|--0--3s----3----|------------------------------|----------------|--0M-0M-3-----0M-0M-3h-2----| 
                                                                    Disto Part : End with a 0 if 2 guitars


D#|----------------|------------------------------|----------------------------|----------------------------|
A#|----------------|------------------------------|----------------------------|----------------------------|
F#|----------------|------------------------------|--------0-----2h-0--0-------|----------------------------|
C#|----------------|------------------------------|----------------------------|----------------------------|
G#|--------2-------|--2s-4h----5------4s-------2--|--1-------------------------|----------------------------|
A#|--0--3s----3----|------------------------------|----------------------------|--0M-0M-3-----0M-0M-3h-2----|
                                                                                          Disto Part


D#|----------------|------------------------------|----------------|----------------------------|
A#|----------------|------------------------------|----------------|----------------------------|
F#|----------------|------------------------------|-----0-----0----|----------------------------|
C#|----------------|------------------------------|----------------|----------------------------|
G#|--------2-------|--2s-4h----5------4s-------2--|--1-----1-------|----------------------------|
A#|--0--3s----3----|------------------------------|----------------|--0M-0M-3-----0M-0M-3h-2----| 
                                                                    Disto Part : End with a 0 if 2 guitars


D#|----------------|------------------------------|----------------------------|----------------------------|
A#|----------------|------------------------------|----------------------------|----------------------------|
F#|----------------|------------------------------|--------0-----2h-0--0-------|----------------------------|
C#|----------------|------------------------------|----------------------------|----------------------------|
G#|--------2-------|--2s-4h----5------4s-------2--|--1-------------------------|----------------------------|
A#|--0--3s----3----|------------------------------|----------------------------|--0M-0M-3-----0M-0M-3h-2----|
                                                                                          Disto Part


[Main Riff]
You can palm mute the lower string for a heavier sound


D#|---------------------------|----------------------------------------------------|-------------------------|
A#|---------------------------|----------------------------------------------------|-------------------------|
F#|---------------------------|----------------------------------------------------|-------------------------|
C#|----------3--3--3----------|--------3-----3-----3-------------------------------|-----------3--3--3-------|
G#|----------5--5--5----------|--------5-----5-----5-------------------------------|-----------5--5--5-------|
A#|-0--0--0--6--6--6--0--0----|--0-----6-----6-----6-----0-----0-----0M-0M-0-------|--0--0--0--6--6--6--0--0-|


D#|------------------------------------------------|
A#|------------------------------------------------| 
F#|------------------------------------------------|
C#|------------------------------------------------|
G#|------------------------------------------------|
A#|--0-----0-----0-----0-----0M-0M-0-----0-----0---|



D#|---------------------------|----------------------------------------------------|-------------------------|
A#|---------------------------|----------------------------------------------------|-------------------------|
F#|---------------------------|----------------------------------------------------|-------------------------|
C#|----------3--3--3----------|--------3-----3-----3-------------------------------|-----------3--3--3-------|
G#|----------5--5--5----------|--------5-----5-----5-------------------------------|-----------5--5--5-------|
A#|-0--0--0--6--6--6--0--0----|--0-----6-----6-----6-----0-----0-----0M-0M-0-------|--0--0--0--6--6--6--0--0-|


D#|------------------------------------------------|
A#|------------------------------------------------| 
F#|------------------------------------------------|
C#|------------------------------------------------|
G#|------------------------------------------------|
A#|--0-----0-----0-----0-----0M-0M-0-----0-----0---|



D#|----------------------------|--------------------------------------------------|-------------------------|
A#|----------------------------|--------------------------------------------------|-------------------------|
F#|----------------------------|--------------------------------------------------|-------------------------|
C#|-----------4--4--4----------|--------4-----4-----4-----------------------------|-----------4--4--4-------|
G#|-----------0--0--0----------|--------0-----0-----0-----------------------------|-----------0--0--0-------|
A#|--0--0--0--7--7--7--0--0----|--0-----7-----7-----7-----0-----0-----0M-0M-0-----|--0--0--0--7--7--7--0--0-|


D#|------------------------------------------------|
A#|------------------------------------------------|  
F#|------------------------------------------------|
C#|------------------------------------------------|
G#|------------------------------------------------|
A#|--0-----0-----0-----0-----0M-0M-0-----0-----0---|



D#|---------------------------|--------------------------------------------------|--------------------------|
A#|---------------------------|--------------------------------------------------|--------------------------|
F#|---------------------------|--------------------------------------------------|--------------------------|
C#|----------3--3--3----------|--------3-----3-----3-----------------------------|-----------3--3--3--------|
G#|----------5--5--5----------|--------5-----5-----5-----------------------------|-----------5--5--5--------|
A#|-0--0--0--6--6--6--0--0----|--0-----6-----6-----6-----0-----0-----0M-0M-0-----|--0--0--0--6--6--6--0--0--|


D#|------------------------------------------------|
A#|------------------------------------------------|
F#|------------------------------------------------|
C#|------------------------------------------------|
G#|------------------------------------------------|
A#|--0-----0-----0-----0-----0M-0M-0-----0-----0---|



[Verse]

D#|----------------------------|----------------------------|----------------------------|-------|
A#|----------------------------|----------------------------|----------------------------|-------|
F#|----------------------------|----------------------------|----------------------------|-------|   
C#|-----------3--3--3----------|-----3--3--3----------------|-----------3--3--3----------|-------|
G#|-----------5--5--5----------|-----5--5--5----------------|-----------5--5--5----------|-------|
A#|--0--0--0--6--6--6--0--0----|--0--6--6--6----------------|--0--0--0--6--6--6--0L------|--0----|  


D#|----------------------------|----------------------------|----------------------------|-------|
A#|----------------------------|----------------------------|----------------------------|-------|
F#|----------------------------|----------------------------|----------------------------|-------|   
C#|-----------3--3--3----------|-----3--3--3----------------|-----------3--3--3----------|-------|
G#|-----------5--5--5----------|-----5--5--5----------------|-----------5--5--5----------|-------|
A#|--0--0--0--6--6--6--0--0----|--0--6--6--6----------------|--0--0--0--6--6--6--0L------|--0----|   


D#|----------------------------|----------------------------|----------------------------|-------|
A#|----------------------------|----------------------------|----------------------------|-------|
F#|----------------------------|----------------------------|----------------------------|-------|   
C#|-----------4--4--4----------|-----4--4--4----------------|-----------4--4--4----------|-------|
G#|-----------0--0--0----------|-----0--0--0----------------|-----------0--0--0----------|-------|
A#|--0--0--0--7--7--7--0--0----|--0--7--7--7----------------|--0--0--0--7--7--7--0L------|--0----|


D#|----------------------------|--------------------------------------------------|-------------------------|
A#|----------------------------|--------------------------------------------------|-------------------------|
F#|----------------------------|--------------------------------------------------|-------------------------|
C#|-----------3--3--3----------|--------3-----3-----3-----------------------------|-----------3--3--3-------|
G#|-----------5--5--5----------|--------5-----5-----5-----------------------------|-----------5--5--5-------|
A#|--0--0--0--6--6--6--0--0----|--0-----6-----6-----6-----0-----0-----0M-0M-0-----|--0--0--0--6--6--6--0L---|


[Prechorus]


D#|----------------------------|----------------------------|
A#|----------------------------|----------------------------|
F#|----------------------------|----------------------------| 
C#|----------------------------|----------------------------|
G#|-----14-13----13-12----12---|--11----11-10---------------|
A#|--0--------0--------0-------|-----0--------0--1--1--1----|

D#|----------------------------|----------------------------|
A#|----------------------------|----------------------------|
F#|----------------------------|----------------------------| 
C#|----------------------------|----------------------------|
G#|-----14-13----13-12----12---|--11----11-10---------------|
A#|--0--------0--------0-------|-----0--------0--13-13-13---|

D#|----------------------------|----------------------------|
A#|----------------------------|----------------------------|
F#|----------------------------|----------------------------| 
C#|----------------------------|----------------------------|
G#|-----14-13----13-12----12---|--11----11-10---------------|
A#|--0--------0--------0-------|-----0--------0--1--1--1----|

D#|----------------------------|----------------------------|
A#|----------------------------|----------------------------|
F#|--5g-5g-5g-5g-------11g11g--|--11g11g------8g------------|  (Notes suggested)
C#|----------------------------|----------------------------|  
G#|--3--3--3--3--------9--9----|--9--9--------6-------------|
A#|--1--1--1--1--------7--7----|--7--7--------4-------------|


[Chorus]


D#|----------------------------|----------------|----------------|----------------------------|
A#|----------------------------|----------------|----------------|----------------------------|
F#|----------------------------|----------------|----------------|----------------------------|
C#|----------------------------|----------------|----------------|----------------------------|
G#|----------------------------|----------------|----------------|----------------------------|
A#|--0--------0--3--1--0-------|--3-----0--5L---|--5--0--7-------|--8-----------8--7--10s-----|


D#|----------------------------|----------------|----------------|----------------------------|
A#|----------------------------|----------------|----------------|----------------------------|
F#|----------------------------|----------------|----------------|----------------------------|
C#|----------------------------|----------------|----------------|----------------------------|
G#|----------------------------|----------------|----------------|----------------------------|
A#|--0--------0--3--1--0-------|--3-----0--5L---|--5--0--7L------|--7s-13-13-13-13-13-13s-----|


D#|----------------------------|----------------|----------------|----------------------------|
A#|----------------------------|----------------|----------------|----------------------------|
F#|----------------------------|----------------|----------------|----------------------------|
C#|----------------------------|----------------|----------------|----------------------------|
G#|----------------------------|----------------|----------------|----------------------------|
A#|--0--------0--3--1--0-------|--3-----0--5L---|--5--0--7-------|--8-----------8--7--10s-----|


D#|----------------|----------------|-------|---------------------------|
A#|----------------|----------------|-------|---------------------------|
F#|--12-12-12-12---|--12-14-16-11L--|--11---|---------------------------|
C#|----------------|----------------|-------|---------------------------|
G#|--10-10-10-10---|--10-12-14-9L---|--9----|---------------------------|
A#|--8--8--8--8----|--8--10-12-7L---|--7----|--7--5--3-----5--3--1------|



[Bridge]
There are those weird bends (prebend between a 1/4 and a 1/2 step 
and then you play the note after the release) :

D#|----------------|----------------|----------------|----------------|
A#|----------------|----------------|----------------|----------------|
F#|--17~17~17~17~--|--17~17~17~17~--|--17~17~17~17~--|--17~17~17~17~--|
C#|----------------|----------------|----------------|----------------|
G#|----------------|----------------|----------------|----------------|
A#|----------------|----------------|----------------|----------------|


D#|----------------|----------------|----------------|----------------|
A#|----------------|----------------|----------------|----------------|
F#|--20~20~20~20~--|--20~20~20~20~--|--20~20~20~20~--|--20~20~20~20~--|
C#|----------------|----------------|----------------|----------------|
G#|----------------|----------------|----------------|----------------|
A#|----------------|----------------|----------------|----------------|


And the rhythm guitar enters next :


D#|----------------|----------------------------|----------------|----------------------------|
A#|----------------|----------------------------|----------------|----------------------------|
F#|----------------|----------------------------|----------------|----------------------------|
C#|----------------|----------------------------|----------------|----------------------------|
G#|--------3-------|--------------6-------------|--------3-------|----------------------------|
A#|--0--0M-1--0----|--x-----0M-0M-4-----0-------|--xM-0--1--0----|--x-----12s---10h12-4s------|


D#|----------------|----------------------------|----------------|----------------------------|
A#|----------------|----------------------------|----------------|----------------------------|
F#|----------------|----------------------------|----------------|----------------------------|
C#|----------------|----------------------------|----------------|----------------------------|
G#|--------3-------|--------------6-------------|--------3-------|--------------------9s------|
A#|--0--0M-1--0----|--x-----0M-0M-4-----0-------|--xM-0--1--0----|--x-----12s---10h12---------|


D#|----------------|----------------------------|----------------|----------------------------|
A#|----------------|----------------------------|----------------|----------------------------|
F#|----------------|----------------------------|----------------|----------------------------|
C#|----------------|----------------------------|----------------|----------------------------|
G#|--------3-------|--------------6-------------|--------3-------|----------------------------|
A#|--0--0M-1--0----|--x-----0M-0M-4-----0-------|--xM-0--1--0----|--x-----12s---10h12-16s-----|


D#|----------------|----------------------------|----------------|----------------------------|
A#|----------------|----------------------------|----------------|----------------------------|
F#|----------------|----------------------------|----------------|----------------------------|
C#|----------------|----------------------------|----------------|----------------------------|
G#|--------3-------|--------------6-------------|--------3-------|----------------------------|
A#|--0--0M-1--0----|--x-----0M-0M-4-----0-------|--xM-0--1--0----|--x-----12s---10h12-13s-----|


The lead enters after (repeat this) :


D#|----------------------|----------------------|----------|----------------------|
A#|----------------------|----------------------|----------|----------------------|
F#|----------------------|----------------------|----------|----------------------|
C#|--9~-------9--8--7----|----------------------|----------|----------------------|
G#|----------------------|--9~-------7--9--7s---|--13-13~--|--7s-9--7s-4b---------|
A#|----------------------|----------------------|----------|----------------------|


D#|----------------------|----------------------|----------|----------------------|
A#|----------------------|----------------------|----------|----------------------|
F#|----------------------|----------------------|----------|-----------------3----|
C#|--9~-------9--8--7----|----------------------|----------|----------------------|
G#|----------------------|--9~-------7--9--7s---|--13-13~--|--7s-9--7s-4h-5-------|
A#|----------------------|----------------------|----------|----------------------|


The rhythm part under the lead is hard to figure out. Here is what I hear (not 100% accurate) :
You can end the section with 3-2 or 8-7.


D#|-----------------------------------------------------------------|----------------------|-------|---------|
A#|-----------------------------------------------------------------|----------------------|-------|---------|
F#|-----------------------------------------------------------------|----------------------|-------|---------|
C#|-----------------------------------------------------------------|----------------------|-------|---------|
G#|-----------------------------------------------------------------|----------------------|-------|---------|
A#|--0--------0-------0--------0--------12---------11-------15------|--14-------15-14-12---|--11---|--3--2---|


[Clean Bridge]


D#|----------------|------------------------------|----------------|----------------------------|
A#|----------------|------------------------------|----------------|----------------------------|
F#|----------------|------------------------------|----------------|----------------------------|  
C#|----------------|------------------------------|----------------|----------------------------|
G#|--------2-------|--2s-4h----5------4s-------2--|--1-------------|--1L------------------------|
A#|--0--3s----3----|------------------------------|----------------|----------------------------|


D#|----------------|------------------------------|----------------|----------------------------|
A#|----------------|------------------------------|----------------|----------------------------|
F#|----------------|------------------------------|----------------|----------------------------|  
C#|----------------|------------------------------|----------------|----------------------------|
G#|--------2-------|--2s-4h----5------4s-------2--|--1-------------|--1L------------------------|
A#|--0--3s----3----|------------------------------|----------------|----------------------------|


[Final Chorus]


D#|----------------------------|----------------|----------------|----------------------------|
A#|----------------------------|----------------|----------------|----------------------------|
F#|----------------------------|----------------|----------------|----------------------------|
C#|----------------------------|----------------|----------------|----------------------------|
G#|----------------------------|----------------|----------------|----------------------------|
A#|--0--------0--3--1--0-------|--3-----0--5L---|--5--0--7-------|--8-----------8--7--10s-----|


D#|----------------------------|----------------|----------------|----------------------------|
A#|----------------------------|----------------|----------------|----------------------------|
F#|----------------------------|----------------|----------------|----------------------------|
C#|----------------------------|----------------|----------------|----------------------------|
G#|----------------------------|----------------|----------------|----------------------------|
A#|--0--------0--3--1--0-------|--3-----0--5L---|--5--0--7L------|--7s-13-13-13-13-13-13s-----|


D#|----------------------------|----------------|----------------|----------------------------|
A#|----------------------------|----------------|----------------|----------------------------|
F#|----------------------------|----------------|----------------|----------------------------|
C#|----------------------------|----------------|----------------|----------------------------|
G#|----------------------------|----------------|----------------|----------------------------|
A#|--0--------0--3--1--0-------|--3-----0--5L---|--5--0--7-------|--8-----------8--7--10s-----|


D#|----------------|----------------|-------|
A#|----------------|----------------|-------|
F#|--12-12-12-12---|--12-14-16-11L--|--11---|
C#|----------------|----------------|-------|
G#|--10-10-10-10---|--10-12-14-9L---|--9----|  (The chords lasts two measures)
A#|--8--8--8--8----|--8--10-12-7L---|--7----|


D#|----------------|----------------|-------|---------------------------|
A#|----------------|----------------|-------|---------------------------|
F#|--12-12-12-12---|--12-14-16-11L--|--11---|---------------------------|
C#|----------------|----------------|-------|---------------------------|
G#|--10-10-10-10---|--10-12-14-9L---|--9----|---------------------------|
A#|--8--8--8--8----|--8--10-12-7L---|--7----|--7--5--3-----5--3--1------|


[Outro]

Bends (GTR 1) :

D#|----------------|----------------|----------------|----------------|
A#|----------------|----------------|----------------|----------------|
F#|--17~17~17~17~--|--17~17~17~17~--|--17~17~17~17~--|--17~17~17~17~--|
C#|----------------|----------------|----------------|----------------|
G#|----------------|----------------|----------------|----------------|
A#|----------------|----------------|----------------|----------------|


D#|----------------|----------------|----------------|----------------|
A#|----------------|----------------|----------------|----------------|
F#|--20~20~20~20~--|--20~20~20~20~--|--20~20~20~20~--|--20~20~20~20~--|
C#|----------------|----------------|----------------|----------------|
G#|----------------|----------------|----------------|----------------|
A#|----------------|----------------|----------------|----------------|

Lead (GTR 1) :

D#|----------------------|----------------------|----------|----------------------|
A#|----------------------|----------------------|----------|----------------------|
F#|----------------------|----------------------|----------|----------------------|
C#|--9~-------9--8--7----|----------------------|----------|----------------------|
G#|----------------------|--9~-------7--9--7s---|--13-13~--|--7s-9--7s-4b---------|
A#|----------------------|----------------------|----------|----------------------|


D#|----------------------|----------------------|----------|----------------------|
A#|----------------------|----------------------|----------|----------------------|
F#|----------------------|----------------------|----------|-----------------3----| (Until the end)
C#|--9~-------9--8--7----|----------------------|----------|----------------------|
G#|----------------------|--9~-------7--9--7s---|--13-13~--|--7s-9--7s-4h-5-------|
A#|----------------------|----------------------|----------|----------------------|


Rhythm (GTR 2) :

D#|----------------|----------------------------|----------------|----------------------------|
A#|----------------|----------------------------|----------------|----------------------------|
F#|----------------|----------------------------|----------------|----------------------------|
C#|----------------|----------------------------|----------------|----------------------------|
G#|--------3-------|--------------6-------------|--------3-------|----------------------------|
A#|--0--0M-1--0----|--x-----0M-0M-4-----0-------|--xM-0--1--0----|--x-----12s---10h12-4s------|


D#|----------------|----------------------------|----------------|----------------------------|
A#|----------------|----------------------------|----------------|----------------------------|
F#|----------------|----------------------------|----------------|----------------------------|
C#|----------------|----------------------------|----------------|----------------------------|
G#|--------3-------|--------------6-------------|--------3-------|--------------------9s------|
A#|--0--0M-1--0----|--x-----0M-0M-4-----0-------|--xM-0--1--0----|--x-----12s---10h12---------|


D#|----------------|----------------------------|----------------|----------------------------|
A#|----------------|----------------------------|----------------|----------------------------|
F#|----------------|----------------------------|----------------|----------------------------|
C#|----------------|----------------------------|----------------|----------------------------|
G#|--------3-------|--------------6-------------|--------3-------|----------------------------|
A#|--0--0M-1--0----|--x-----0M-0M-4-----0-------|--xM-0--1--0----|--x-----12s---10h12-16s-----|


D#|----------------|----------------------------|----------------|----------------------------|
A#|----------------|----------------------------|----------------|----------------------------|
F#|----------------|----------------------------|----------------|----------------------------|
C#|----------------|----------------------------|----------------|----------------------------|
G#|--------3-------|--------------6-------------|--------3-------|--------------------9s------|
A#|--0--0M-1--0----|--x-----0M-0M-4-----0-------|--xM-0--1--0----|--x-----12s---10h12---------|

The bends first and then the lead part over the rhythm.



Hope this will help. Message me if you have a problem or a better suggestion !



Legend
L - tied note
x - dead note
h - hammer on/pull off
b - bend
s - slide
~ - vibrato
g - ghost note
> - accentuated note
t - trill
M - palm mute
. - staccato
P - popping (bass)
S - slapping (bass)
+ - tapping
W - wide vibrato
< - fade in
w - whammy bar
= - tremolo picking
v - brush up
^ - brush down
V - pick stroke up
n - pick stroke down
a
Suggest correction
Give kudos to tab author, rate the tab!
1 2 3 4 5
comments
print report bad tab
guest
You may want to rate the tab now too:
select rating
Wanna post a correction for this tab? Suggest correction