Oops, an error
Loading. Please wait.

This Side Of Fate bass

version 1
version 1

Whole song

  • Full bass tab - start to finish. Rhythms are fairly accurate.

Interactive

178 views 3 this week
no commentswrite comment
1 2 3 4 5
2 more votes to show rating
add to favorites
×
Save as Personal and add changes to this tab that will be seen only by you. Learn more ›
×
You can save this tab as Personal to edit and correct it or add notes. All changes will be seen only by you. Learn more »
launch autoscroll
font size
0
reset
guitar tuner
edit
Autoscroll
slow
fast
+/-
esc
set tempo
stop
About this tab version
Full bass tab - start to finish. Rhythms are fairly accurate. Was this info helpful? Yes No
Artist/Song:  Alter Bridge - This Side of Fate
Album:        The Last Hero
Tuning:       5 string standard
tabbed by:    jjhand


[Intro]

G|-----------------|-------------------|---------------------|---------------------|
D|-----------------|-------------------|---------------------|---------------------|
A|-----------------|-------------------|---------------------|---------------------|
E|-3---3-3-3--3--3-|-2---2-2--2--2--2--|---------------------|---------------------|
B|-----------------|-------------------|-5---5-5-5-4---4-4-4-|-2---2-2-2-0---0-0-0-|


G|------------------|------------------|------------------|-------------------|
D|------------------|------------------|------------------|-------------------|
A|-5---5-5-5--5--5--|------------------|------------------|-------------------|
E|------------------|-5---5-5-5--5--5--|-3---3-3-3--3--3--|-2---2-2--2--2--2--|
B|------------------|------------------|------------------|-------------------|

G|------------------|------------------|----------------------------|
D|------------------|------------------|----------------------------|
A|------------------|------------------|----------------------------|
E|------------------|------------------|----------------------------|
B|-5-----5--4-----4-|-2-----2--0-----0-|-3--------------------------|



[Verse]
   Rest for first 12 bars - guitars only

   (0:56)
G|--------------|--------------|-----------------|------------------|-------------|-----|
D|--------------|--------------|-----------------|------------------|-------------|-----|
A|--------------|--------------|-----------------|------------------|-------------|-----|
E|--------------|--------------|-----------------|------------------|-10----------|-10\-|
B|-8------------|-7------------|-5-------4-------|-2-------0--------|-------------|-----|

G|--------------|--------------|-----------------|------------------|-------------|
D|--------------|--------------|-----------------|------------------|-------------|
A|--------------|--------------|-----------------|------------------|-------------|
E|--------------|--------------|-----------------|------------------|-10----------|
B|-8------------|-7------------|-5-------4-------|-2-------0--------|-------------|

G|--------------|-------------------|-------------------|
D|--------------|-------------------|-------------------|
A|--------------|-------------------|-------------------|
E|-5----------5-|-7--7--7--7--7--7--|-------------------|
B|--------------|-------------------|-0--0--0--0--0--0--|



[Chorus]

G|------------------|-------------------|-------------------|-------------------|
D|------------------|-------------------|-------------------|-------------------|
A|------------------|-------------------|-------------------|-------------------|
E|-3---3-3-3-----3--|-2---2-2--2--2--2--|-------------------|-5---5-5--5--5--5--|
B|------------3-----|-------------------|-3---3-3--3--3--3--|-------------------|

G|-------------------|-------------------|------------------|-------------------|
D|-------------------|-------------------|------------------|-------------------|
A|-------------------|-------------------|------------------|-------------------|
E|-4---4-4--4--5--7--|-4---4-4--4--4--4--|-3---3-3-3--3--3--|-2---2-2--2--2--2--|
B|-------------------|-------------------|------------------|-------------------|

G|-------------------|-------------------|-----------------------------------|
D|-------------------|-------------------|-----------------------------------|
A|-------------------|-------------------|-----------------------------------|
E|-------------------|-5---5-5--5--5--5--|-4---------------------------------|
B|-3---3-3--3--3--3--|-------------------|-----------------------------------|



[Pre-Verse 2]

G|-------------------|------------------|-------------------|-------------------|
D|-------------------|------------------|-------------------|-------------------|
A|-------------------|------------------|-------------------|-------------------|
E|-------------------|------------------|-------------------|-9--------7--------|
B|-8-----------------|-7----------------|-5--------4--------|-------------------|

G|-------------------|------------------|
D|-------------------|------------------|
A|-------------------|------------------|
E|-10-10-10-10-10-10\|------------------|
B|-------------------|-3----------------|



[Verse 2]

G|--------------------|---------------------|-------------------|-------------------|
D|--------------------|---------------------|-------------------|-------------------|
A|--------------------|---------------------|-------------------|-------------------|
E|-3-----------3------|-2------/3---2-------|-------------------|-9--------7--------|
B|---------3-------3--|-----------------3---|-5--------4--------|-------------------|

G|--------------------|---------------------|--------------------|------------------|
D|--------------------|---------------------|--------------------|------------------|
A|--------------------|---------------------|--------------------|------------------|
E|-10-10-10-10\-------|-----------------5---|-3-----------3------|-2----------------|
B|--------------------|-3----3----3---------|---------3-------3--|------------------|

G|-----------------|------------------|--------------------|----------------------|
D|-----------------|------------------|--------------------|----------------------|
A|-----------------|------------------|--------------------|----------------------|
E|-----------------|------------------|-10-10-10-10\-------|-5---5---5---5---5----|
B|-5-------4-------|-2-------0--------|--------------------|----------------------|

G|---------------------|------------------------|
D|---------------------|-9---9---9---9----------|
A|----------------/9---|------------------------|
E|-7--7--7--7--7-------|----------------15\-----|
B|---------------------|------------------------|


[Chorus 2]

G|------------------|-------------------|-------------------|-------------------|
D|------------------|-------------------|-------------------|-------------------|
A|------------------|-------------------|-------------------|-------------------|
E|-3---3-3-3-----3--|-2---2-2--2--2--2--|-------------------|-5---5-5--5--5--5--|
B|------------3-----|-------------------|-3---3-3--3--3--3--|-------------------|

G|-------------------|-------------------|------------------|-------------------|
D|-------------------|-------------------|------------------|-------------------|
A|-------------------|-------------------|------------------|-------------------|
E|-4---4-4--4--5--7--|-4---4-4--4--4--4--|-3---3-3-3--3--3--|-2---2-2--2--2--2--|
B|-------------------|-------------------|------------------|-------------------|

G|-------------------|-------------------|-----------------------------------|
D|-------------------|-------------------|-----------------------------------|
A|-------------------|-------------------|-----------------------------------|
E|-------------------|-5---5-5--5--5--5--|-4---------------------------------|
B|-3---3-3--3--3--3--|-------------------|-----------------------------------|


[Bridge Riff 1]   

play this part 2x:
G|-------------------------|-------------------------|
D|-------------------------|-------------------------|
A|-------------------------|-------------------------|
E|---0---3-0-0---0---3-0-0-|---0---3-0-0---0---3-0-0-|
B|-0---0-------0---0-------|-0---0-------0---0-------|

G|-------------------------|-------------------------|
D|-------------------------|-------------------------|
A|-------------------------|-------------------------|
E|-------------------------|-------------------------|
B|-0-4-5-7-5-4-0-4-5-7-5-4-|-0-4-5-7-5-4-0-4-5-7-5-4-|



   Bridge Riff 1 ending
G|-------------------|-------------------|-------------------|-------------------------|
D|-------------------|-------------------|-------------------|-------------------------|
A|-------------------|-------------------|-------------------|-------------------6-6-6-|
E|-5--8--5--5--8--5--|----7--------7-----|----6--------6-----|-------7-7-7-8-8-8-------|
B|-------------------|-8-----8--8-----8--|-7-----7--7-----7--|-0-0-0-------------------|



play this part 2x:
G|-------------------------|-------------------------|
D|-------------------------|-------------------------|
A|-------------------------|-------------------------|
E|---0---3-0-0---0---3-0-0-|---0---3-0-0---0---3-0-0-|
B|-0---0-------0---0-------|-0---0-------0---0-------|

G|-------------------------|-------------------------|
D|-------------------------|-------------------------|
A|-------------------------|-------------------------|
E|-------------------------|-------------------------|
B|-0-4-5-7-5-4-0-4-5-7-5-4-|-0-4-5-7-5-4-0-4-5-7-5-4-|



   Bridge Riff 1 ending #2
G|-------------------|-------------------|-------------------|-------------------------|
D|-------------------|-------------------|-------------------|-------------------------|
A|-------------------|-------------------|-------------------|-------------------6-6-6-|
E|-5--8--5--5--8--5--|----7--------7-----|----6--------6-----|-------7-7-7-8-8-8-------|
B|-------------------|-8-----8--8-----8--|-7-----7--7-----7--|-0-0-0-------------------|

G|-------------------------|
D|----------------10-------|
A|-7-7-7-10-10-10----------|
E|-------------------------|
B|-------------------------|


[Bridge Part 2]
G|---------------------|--------------------|------------------------|------------------------|
D|---------------------|--------------------|------------------------|------------------------|
A|---------------------|--------------------|------------------------|------------------------|
E|---------------------|--------------------|-7----------------5-7p5-|-7----------------5-7p5-|
B|-7--7--7--7-7--7--7--|-7--7--7--7-7--7--7-|---0--0--0--2/3/5-------|---0--0--0--2/3/5-------|

G|-------------------|-------------------|-------------------|--------------------|
D|-------------------|-------------------|-------------------|--------------------|
A|-------------------|-------------------|-------------------|--------------------|
E|-5--5--5--5--------|-3--3--3--3--------|-2--2--2--2--2--2--|--------------------|
B|-------------------|-------------------|-------------------|-0---0---0-0--0--0--|

G|---------------------|--------------------|------------------------|------------------------|
D|---------------------|--------------------|------------------------|------------------------|
A|---------------------|--------------------|------------------------|------------------------|
E|---------------------|--------------------|-7----------------5-7p5-|-7----------------5-7p5-|
B|-7--7--7--7-7--7--7--|-7--7--7--7-7--7--7-|---0--0--0--2/3/5-------|---0--0--0--2/3/5-------|

G|-------------------|-------------------|-------------------|
D|-------------------|-------------------|-------------------|
A|-------------------|-------------------|-------------------|
E|-5--5--5--5--5--5--|-3--3--3--3--3--3--|-2--2--2--2--2--2--|
B|-------------------|-------------------|-------------------|


   Bridge Part 2 Build-up
G|---------------------------|----------------------------|---------------------------|
D|---------------------------|----------------------------|---------------------------|
A|---------------------------|----------------------------|---------------------------|
E|-7p5---------5h7p5---------|--------------5h7p5---8-8-8-|-7p5---------5h7p5---------|
B|-----7-0---0-------7-0---0-|-0--2--3--3-5-------7-------|-----7-0---0-------7-0---0-|

G|------------------------------|---------------------------|----------------------------|
D|------------------------------|---------------------------|----------------------------|
A|------------------------------|---------------------------|----------------------------|
E|-------------8-8-8-8-8-8-8----|-7p5---------5h7p5---------|--------------5h7p5---8-8-8-|
B|-0---2---3--------------------|-----7-0---0-------7-0---0-|-0--2--3--3-5-------7-------|

G|---------------------------|------------------------|-------------------------|-------|
D|---------------------------|------------------------|-------------------------|-------|
A|---------------------------|------------------6-6-6-|-7-7-7-9-9-9-------------|-7\----|
E|-7p5---------5h7p5---------|------7-7-7-8-8-8-------|-------------8-8-8-7-7-7-|-------|
B|-----7-0---0-------7-0---0-|-0--0-------------------|-------------------------|-------|


  rest during slower lyrics & acoustic/electric duet part for 6 measures


  Bridge Part 2 ending
G|-------------------------|-------------------------|
D|-------------------------|-------------------------|
A|-------------------------|-------------------------|  play 3x
E|-7-7-7-------7-7-7-------|-7-7-7-------8---8---8---|
B|-------0-----------0-----|-------0-----------------|

G|-------------------------|-------------------------|
D|-------------------------|-------------------------|
A|-------------------------|-5-5-5-5-----6-6-6-6-----|  play 3x
E|-7-7-7-7-----8-8-8-8-----|-------------------------|
B|-------------------------|-------------------------|



[Guitar Solo]
G|-------------------|------------------|-------------------|-------------------|
D|-------------------|------------------|-------------------|-------------------|
A|-------------------|------------------|-------------------|-------------------|
E|-0--------2--------|-3--------7-------|-5-----------------|-------------------|
B|-------------------|------------------|----------0--------|-1--------3--------|

G|-------------------|------------------|-------------------|-------------------|
D|-------------------|------------------|-------------------|-------------------|
A|-5--------7--------|-9--------10------|-------------------|-------------------|
E|-------------------|------------------|-------------------|-------------------|
B|-------------------|------------------|-8--------8--10--8-|-7--------7--8--7--|

G|-------------------|------------------|-------------------|-------------------|
D|-------------------|------------------|-------------------|-------------------|
A|-------------------|------------------|-------------------|-------------------|
E|-0--------2--------|-3--------7-------|-5-----------------|-------------------|
B|-------------------|------------------|----------0--------|-1-------/5\-------|

G|-------------------------|-----------------------|-----------------------|
D|-------------------------|-----------------------|-----------------------|
A|-------------------------|-----------------------|-----------------------|
E|-------------------------|-7-7-7-7-7-7-8--8--8---|-------/7---------/7---|
B|-0-0-0-0-0-0-0-0-0-0-0-0-|-----------------------|-0-0-0------0-0-0------|

G|-------------------------|
D|-------------------------|
A|-------------------------|
E|-7-7-7-7-7-7-8---8---8---|
B|-------------------------|

[Solo Bridge]

   play 2x:
G|-----------------|-----------------|-----------------|-----------------|
D|-----------------|-----------------|-----------------|-----------------|
A|--7--------------|-(7)-------------|-(7)-------------|-(7)-------------|
E|-----------------|-----------------|-----------------|-----------------|
B|-----------------|-----------------|-----------------|-----------------|


[Chorus Variation]
   This part has the same lyrics and rhythm as chorus but the chords differ 
G|----------------------|----------------------|-----------------------|
D|----------------------|----------------------|-----------------------|
A|----------------------|----------------------|-----------2-----------|
E|----------------------|----------------------|-----------------------|
B|-3----3-3--3---3---3--|-2----2-2--2---2---2--|-0----0-0------0---0---|

G|----------------------|----------------------|-------------------------|
D|----------------------|----------------------|-------------------------|
A|-4----4-4--2---2---2--|-5---5---5---5--------|-------------------------|
E|----------------------|----------------------|-5---5---5---5---5---5---|
B|----------------------|----------------------|-------------------------|

G|----------------------|----------------------|-----------------------|
D|----------------------|----------------------|-----------------------|
A|----------------------|----------------------|-----------2-----------|
E|----------------------|----------------------|-----------------------|
B|-3----3-3--3---3---3--|-2----2-2--2---2---2--|-0----0-0------0---0---|

G|----------------------|----------------------|-------------------------|
D|----------------------|----------------------|-------------------------|
A|-4----4-4--2---2---2--|-5---5---5---5--------|-------------------------|
E|----------------------|----------------------|-5---5---5---5---5---5---|
B|----------------------|----------------------|-------------------------|

G|----------------------|----------------------|----------------------|
D|----------------------|----------------------|----------------------|
A|-5----5-5--5-------5--|-4----4-4-------------|-----------2---2---2--|
E|---------------5------|-------------------5--|----------------------|
B|----------------------|-----------2---2------|-0----0-0-------------|

G|----------------------|----------------------|-------------------------|
D|----------------------|----------------------|-------------------------|
A|-4----4-4--2---2---2--|-5---5---5---5\-------|-------------------------|
E|----------------------|----------------------|-5---5---5---5---5---5---|
B|----------------------|----------------------|-------------------------|

G|----------------------|----------------------|----------------------|
D|----------------------|----------------------|----------------------|
A|-5------5--5----------|-4----4-4-------------|----------------------|
E|-------------------5--|-------------------5--|-7----7----6---6---6--|
B|---------------3------|-----------2---2------|----------------------|

G|----------------------|------------------------|-------------------------|
D|----------------------|------------------------|-------------------------|
A|----------------------|-------------5----------|-------------------------|
E|-4----4----2---2---2--|------------------------|-5---5---5---5---5---5---|
B|----------------------|-3---3---3-------3---3--|-------------------------|


[Outro Solo]
G|----------------------|----------------------|----------------------|
D|----------------------|----------------------|----------------------|
A|-5----5-5--5-------5--|-4----4-4-------------|-----------2---2---2--|
E|---------------5------|-------------------5--|----------------------|
B|----------------------|-----------2---2------|-0----0-0-------------|

G|----------------------|----------------------|-------------------------|
D|----------------------|----------------------|-------------------------|
A|-4----4-4--2---2---2--|-5---5---5---5\-------|-------------------------|
E|----------------------|----------------------|-5---5---5---5---5---5---|
B|----------------------|----------------------|-------------------------|

G|----------------------|----------------------|----------------------|
D|----------------------|----------------------|----------------------|
A|-5------5--5----------|-4----4-4-------------|----------------------|
E|-------------------5--|-------------------5--|-7----7----6---6---6--|
B|---------------3------|-----------2---2------|----------------------|

G|----------------------|------------------------|-------------------------|
D|----------------------|------------------------|-------------------------|
A|----------------------|-------------5----------|-------------------------|
E|-4----4----2---2---2--|------------------------|-5---5---5---5---5---5---|
B|----------------------|-3---3---3-------3---3--|-------------------------|

G|----------------------|---------------------|---------------------|
D|----------------------|---------------------|---------------------|
A|----------------------|---------------------|---------------------|
E|-3------------3-------|-2-------------------|---------------------|
B|----------3-------3---|-----------3---------|-5-----5---4-----4---|

G|---------------------|----------------------|-------------------------|
D|---------------------|----------------------|-------------------------|
A|---------------------|----------------------|-------------------------|
E|---------------------|----------------------|-5---5---5---5---5---5---|
B|-2-----2---0-----0---|-3---3---3---3--------|-------------------------|

G|----------------------|----------------------|-----------------------|
D|----------------------|----------------------|-----------------------|
A|----------------------|----------------------|-----------------------|
E|----------------------|----------------------|-----------------------|
B|-3----3-3--3---3---3--|-2----2-2--2---2---2--|-5------5---4-----4----|

G|---------------------|----------------------|-------------------------|
D|---------------------|----------------------|-------------------------|
A|---------------------|----------------------|-------------------------|
E|---------------------|----------------------|-------------------------|
B|-2-----2---0-----0---|-3--------------------|------fade out-----------|

Key:
| /  slide up
| \  slide down
| h  hammer-on
| p  pull-off

            
            
Suggest correction
Creating personal tab
Creating personal tab
You can edit any tab online and save it as your Personal.

You can edit, replace or remove any tab part or add personal notes – all changes will be seen only by you.

Personal tabs can be accessed anytime from any device, even offline.
Learn more »
Give kudos to tab author, rate the tab!
1 2 3 4 5
comments
print report bad tab
guest
You may want to rate the tab now too:
select rating
Wanna post a correction for this tab? Suggest correction