Oops, an error
Loading. Please wait.

This Side Of Fate intro tab

version 1
version 1

Intro

  • Did this by ear for myself to play, and decided to... Show more

Interactive

547 views 9 this week
4 commentsread comments
1 2 3 4 5
x 3
add to favorites
×
Save as Personal and add changes to this tab that will be seen only by you. Learn more ›
×
You can save this tab as Personal to edit and correct it or add notes. All changes will be seen only by you. Learn more »
launch autoscroll
font size
0
reset
how to read this tab
guitar tuner
edit
Autoscroll
slow
fast
+/-
esc
set tempo
stop
About this tab version
Did this by ear for myself to play, and decided to put it on here. Please check out this tab for the full tab with correct tuning https://tabs.ultimate-guitar.com/a/alter_bridge/this_side_of_fate_guitar_pro.htm. Was this info helpful? Yes No
[Intro]

Part 1

Guitar 1 : Clean
            lr  
D#|----------------|      |-----|
A#|-------9-8---9--|   -  |-----|
F#|----10----------| 15x  |-----|
C#|-10-------------|      |--10-|
G#|----------------|      |-----|                
C#|----------------|      |-----|

Guitar 2 : Distortion(play fingerstyle)           
   
  lr-------------------------
D#|----------------------------|      
A#|--9~-----8~-----11~-----9~--|     
F#|---~------------------------| 2x
C#|--8~-----7~-----10~-----8~--|     
G#|----------------------------|      
C#|----------------------------|      


Part 2



Guitar 3 : Distortion
                                    lr-----------------
D#|------------------------------------------------------|----------------------|
A#|------------------------------------------------------|----------------------|
F#|----------------------------------10----9----7----5---|----------------------|
C#|--6-6-6-6-6-6-6-5--5--5-5--5--5---10----9----7----5---|--8--8--8-8--8--5--3--|
G#|--6-6-6-6-6-6-6-5--5--5-5--5--5---8-----7----5----3---|--8--8--8-8--8--5--3--|
C#|--6-6-6-6-6-6-6-5--5--5-5--5--5-----------------------|--8--8--8-8--8--5--3--|

                                                     dlr----------------------- strum
D#|------------------------------------------------|----------------------------------|
A#|------------------------------------------------|----------------------------------|
F#|------------------------------------------------|---10--10--9--9--7--7--5--5-------|
C#|-3--3-3--3--3--6--6--6-6--6--6--5--5--5-5--5--5-|---10--10--9--9--7--7--5--5--1----|
G#|-3--3-3--3--3--6--6--6-6--6--6--5--5--5-5--5--5-|---8---8---7--7--5--5--3--3--1----|
C#|-3--3-3--3--3--6--6--6-6--6--6--5--5--5-5--5--5-|-----------------------------1----|


************************************

| lr   Let Ring
| dlr  Don't let ring
| ~    Vibrato

************************************

            
            
Suggest correction
Creating personal tab
Creating personal tab
You can edit any tab online and save it as your Personal.

You can edit, replace or remove any tab part or add personal notes – all changes will be seen only by you.

Personal tabs can be accessed anytime from any device, even offline.
Learn more »
Give kudos to tab author, rate the tab!
1 2 3 4 5
comments
print report bad tab
4 comments total. Showing first comments.
0 reply
michaelgreine 20 Feb 28, 2017 04:31 AM

Can you try to tab this but with Mark's tuning which is open B minor add 9 (B, F#, C#, F#, B, D)?
Myles is Standard with low B instead of E i think.

Maybe the clean intro riff is done by myles because i cant seem to play it with mark's tuning...

0 reply
michaelgreine 20 Mar 01, 2017 01:49 AM

ok thanks man

0 reply
Gloval 126 Mar 10, 2017 09:42 PM

Use
https://tabs.ultimate-guitar.com/a/alter_bridge/this_side_of_fate_guitar_pro.htm
Instead of this tab, its the full song and in the correct tuning

guest
You may want to rate the tab now too:
select rating
Wanna post a correction for this tab? Suggest correction