Oops, an error
Loading. Please wait.

Watch Over You Tab

version 1
version 1

Whole song

Interactive

164,328 views 72 this week
12 commentsread comments
1 2 3 4 5
x 16
add to favorites
launch autoscroll
font size
0
reset
how to read this tab
guitar tuner
Autoscroll
slow
fast
+/-
esc
set tempo
stop
Help us to improve Ultimate-Guitar.com Take our survey!
×
Difficulty
intermediate
Artist: Alter Bridge
Song: Watch Over You
Album: Blackbird
Tuning: Open G (DGDGBd)

[Intro]
d|--0--0-0-0-7--0-0-9--0--0-0--0--0--0-0-0-0-0----------------|
B|--0--0-0-0-0--0-0-0--5--3-3--3--3--3-3-3-3-3----------------|
G|--0--0-0-0-0--0-0-0--0--0-0--0--0--0-0-0-0-0----------------|
D|--0--0-0-0-0--0-0-0--0--0-0--0--0--0-0-0-0-0----------------|
G|--0--0-0-0-0--0-0-0--5--5-5--5--5--5-5-5-5-5----------------|
D|------------------------------------------------------------|

d|--0--0-0-0-7--0-0-9--0--0-0--0--0--0-0-0-0-0----------------|
B|--0--0-0-0-0--0-0-0--5--5-5--5--5--5-5-5-5/7----------------|
G|--0--0-0-0-0--0-0-0--0--0-0--0--0--0-0-0-0-0----------------|
D|--0--0-0-0-0--0-0-0--0--0-0--0--0--0-0-0-0-0----------------|
G|--0--0-0-0-0--0-0-0--5--5-5--5--5--5-5-5-5/7----------------|
D|------------------------------------------------------------|

[Verse]
d|--0--0-0-0-7--0-0-9--0--0-0--0--0--0-0-0-0-0----------------|
B|--0--0-0-0-0--0-0-0--5--3-3--3--3--3-3-3-3-3----------------|
G|--0--0-0-0-0--0-0-0--0--0-0--0--0--0-0-0-0-0----------------|
D|--0--0-0-0-0--0-0-0--0--0-0--0--0--0-0-0-0-0----------------|
G|--0--0-0-0-0--0-0-0--5--5-5--5--5--5-5-5-5-5----------------|
D|------------------------------------------------------------|
            "Leaves are on the ground..."

d|--0--0-0-0-7--0-0-9--0--0-0--0--0--0-0-0-0-0----------------|
B|--0--0-0-0-0--0-0-0--5--5-5--5--5--5-5-5-5/7----------------|
G|--0--0-0-0-0--0-0-0--0--0-0--0--0--0-0-0-0-0----------------|
D|--0--0-0-0-0--0-0-0--0--0-0--0--0--0-0-0-0-0----------------|
G|--0--0-0-0-0--0-0-0--5--5-5--5--5--5-5-5-5/7----------------|
D|------------------------------------------------------------|
            "Fall   has   come..."

d|--0--0-0-0-7--0-0-9--0--0-0--0--0--0-0-0-0-0----------------|
B|--0--0-0-0-0--0-0-0--5--3-3--3--3--3-3-3-3-3----------------|
G|--0--0-0-0-0--0-0-0--0--0-0--0--0--0-0-0-0-0----------------|
D|--0--0-0-0-0--0-0-0--0--0-0--0--0--0-0-0-0-0----------------|
G|--0--0-0-0-0--0-0-0--5--5-5--5--5--5-5-5-5-5----------------|
D|------------------------------------------------------------|
            "Blue skies turning grey..."

d|--0--0-0-0-7--0-0-9--0--0-0--0--0--0-0-0-0-0----------------|
B|--0--0-0-0-0--0-0-0--5--5-5--5--5--5-5-5-5/7----------------|
G|--0--0-0-0-0--0-0-0--0--0-0--0--0--0-0-0-0-0----------------|
D|--0--0-0-0-0--0-0-0--0--0-0--0--0--0-0-0-0-0----------------|
G|--0--0-0-0-0--0-0-0--5--5-5--5--5--5-5-5-5/7----------------|
D|------------------------------------------------------------|
            "Like   my love..."

d|--0--0-0-0-7--0-0-9--0--0-0--0--0--0-0-0-0-0----------------|
B|--0--0-0-0-0--0-0-0--5--3-3--3--3--3-3-3-3-3----------------|
G|--0--0-0-0-0--0-0-0--0--0-0--0--0--0-0-0-0-0----------------|
D|--0--0-0-0-0--0-0-0--0--0-0--0--0--0-0-0-0-0----------------|
G|--0--0-0-0-0--0-0-0--5--5-5--5--5--5-5-5-5-5----------------|
D|------------------------------------------------------------|
            "I try to  carry you..."

d|--0--0-0-0-7--0-0-9--0--0-0--0--0--0-0-0-0-0----------------|
B|--0--0-0-0-0--0-0-0--5--5-5--5--5--5-5-5-5/7----------------|
G|--0--0-0-0-0--0-0-0--0--0-0--0--0--0-0-0-0-0----------------|
D|--0--0-0-0-0--0-0-0--0--0-0--0--0--0-0-0-0-0----------------|
G|--0--0-0-0-0--0-0-0--5--5-5--5--5--5-5-5-5/7----------------|
D|------------------------------------------------------------|
             "and make you whole"

d|--0--0-0-0-7--0-0-9--0--0-0--0--0--0-0-0-0-0----------------|
B|--0--0-0-0-0--0-0-0--5--3-3--3--3--3-3-3-3-3----------------|
G|--0--0-0-0-0--0-0-0--0--0-0--0--0--0-0-0-0-0----------------|
D|--0--0-0-0-0--0-0-0--0--0-0--0--0--0-0-0-0-0----------------|
G|--0--0-0-0-0--0-0-0--5--5-5--5--5--5-5-5-5-5----------------|
D|------------------------------------------------------------|
             "But it was never........"

d|--0--0-0-0-7--0-0-9--9--9-9--9--9--101010109----------------|
B|--0--0-0-0-0--0-0-0--0--0-0--0--0--0-0-0-0-0----------------|
G|--0--0-0-0-0--0-0-0--0--0-0--0--0--0-0-0-0-0----------------|
D|--0--0-0-0-0--0-0-0--0--0-0--0--0--0-0-0-0-0----------------|
G|--0--0-0-0-0--0-0-0--0--0-0--0--0--0-0-0-0-0----------------|
D|------------------------------------------------------------|
    "Enough,  I      must go...............and..."

[Chorus]
d|-----0--0-0--0--0-0-0----0--0-0--0--0-0-0-------------------|
B|-----0--0-0--0--0-0-0----0--0-0--0--0-0-0-------------------|
G|-----x--x-x--x--x-x-x----x--x-x--x--x-x-x-------------------|
D|--2--2--2-2--2--2-2-2-0--0--0-0--0--0-0-0-------------------|
G|--4--4--4-4--4--4-4-4-2--2--2-2--2--2-2-2-------------------|
D|--2--2--2-2--2--2-2-2-0--0--0-0--0--0-0-0-------------------|
   "Whooo..........................is gonna..."

d|--0--0--0-0--0--0-0-0-0--0-0-0--0-0-0--0-0-0----------------|
B|--5--5--5-5--5--5-5-3-0--0-0-0--0-0-0--0-0-0----------------|
G|--0--0--0-0--0--0-0-0-0--0-0-0--0-0-0--0-0-0----------------|
D|--0--0--0-0--0--0-0-0-0--0-0-0--0-0-0--0-0-0----------------|
G|--5--5--5-5--5--5-5-5-0--0-0-0--0-0-0--0-0-0----------------|
D|------------------------------------4--4-4-4----------------|
    "save you when i'm gone?..............and..."

d|-----0--0-0--0--0-0-0----0--0-0--0--0-0-0-------------------|
B|-----0--0-0--0--0-0-0----0--0-0--0--0-0-0-------------------|
G|-----x--x-x--x--x-x-x----x--x-x--x--x-x-x-------------------|
D|--2--2--2-2--2--2-2-2-0--0--0-0--0--0-0-0-------------------|
G|--4--4--4-4--4--4-4-4-2--2--2-2--2--2-2-2-------------------|
D|--2--2--2-2--2--2-2-2-0--0--0-0--0--0-0-0-------------------|
  "Who'll.........................watch over..."


[Verse]
d|--0--0-0-0-7--0-0-9--0--0-0--0--0--0-0-0-0-0----------------|
B|--0--0-0-0-0--0-0-0--5--3-3--3--3--3-3-3-3-3----------------|
G|--0--0-0-0-0--0-0-0--0--0-0--0--0--0-0-0-0-0----------------|
D|--0--0-0-0-0--0-0-0--0--0-0--0--0--0-0-0-0-0----------------|
G|--0--0-0-0-0--0-0-0--5--5-5--5--5--5-5-5-5-5----------------|
D|------------------------------------------------------------|
            "Leaves are on the ground..."

d|--0--0-0-0-7--0-0-9--0--0-0--0--0--0-0-0-0-0----------------|
B|--0--0-0-0-0--0-0-0--5--5-5--5--5--5-5-5-5/7----------------|
G|--0--0-0-0-0--0-0-0--0--0-0--0--0--0-0-0-0-0----------------|
D|--0--0-0-0-0--0-0-0--0--0-0--0--0--0-0-0-0-0----------------|
G|--0--0-0-0-0--0-0-0--5--5-5--5--5--5-5-5-5/7----------------|
D|------------------------------------------------------------|
            "Fall   has   come..."

d|--0--0-0-0-7--0-0-9--0--0-0--0--0--0-0-0-0-0----------------|
B|--0--0-0-0-0--0-0-0--5--3-3--3--3--3-3-3-3-3----------------|
G|--0--0-0-0-0--0-0-0--0--0-0--0--0--0-0-0-0-0----------------|
D|--0--0-0-0-0--0-0-0--0--0-0--0--0--0-0-0-0-0----------------|
G|--0--0-0-0-0--0-0-0--5--5-5--5--5--5-5-5-5-5----------------|
D|------------------------------------------------------------|
            "Blue skies turning grey..."

d|--0--0-0-0-7--0-0-9--0--0-0--0--0--0-0-0-0-0----------------|
B|--0--0-0-0-0--0-0-0--5--5-5--5--5--5-5-5-5/7----------------|
G|--0--0-0-0-0--0-0-0--0--0-0--0--0--0-0-0-0-0----------------|
D|--0--0-0-0-0--0-0-0--0--0-0--0--0--0-0-0-0-0----------------|
G|--0--0-0-0-0--0-0-0--5--5-5--5--5--5-5-5-5/7----------------|
D|------------------------------------------------------------|
            "Like   my love..."

d|--0--0-0-0-7--0-0-9--0--0-0--0--0--0-0-0-0-0----------------|
B|--0--0-0-0-0--0-0-0--5--3-3--3--3--3-3-3-3-3----------------|
G|--0--0-0-0-0--0-0-0--0--0-0--0--0--0-0-0-0-0----------------|
D|--0--0-0-0-0--0-0-0--0--0-0--0--0--0-0-0-0-0----------------|
G|--0--0-0-0-0--0-0-0--5--5-5--5--5--5-5-5-5-5----------------|
D|------------------------------------------------------------|
            "I try to  carry you..."

d|--0--0-0-0-7--0-0-9--0--0-0--0--0--0-0-0-0-0----------------|
B|--0--0-0-0-0--0-0-0--5--5-5--5--5--5-5-5-5/7----------------|
G|--0--0-0-0-0--0-0-0--0--0-0--0--0--0-0-0-0-0----------------|
D|--0--0-0-0-0--0-0-0--0--0-0--0--0--0-0-0-0-0----------------|
G|--0--0-0-0-0--0-0-0--5--5-5--5--5--5-5-5-5/7----------------|
D|------------------------------------------------------------|
             "and make you whole"

d|--0--0-0-0-7--0-0-9--0--0-0--0--0--0-0-0-0-0----------------|
B|--0--0-0-0-0--0-0-0--5--3-3--3--3--3-3-3-3-3----------------|
G|--0--0-0-0-0--0-0-0--0--0-0--0--0--0-0-0-0-0----------------|
D|--0--0-0-0-0--0-0-0--0--0-0--0--0--0-0-0-0-0----------------|
G|--0--0-0-0-0--0-0-0--5--5-5--5--5--5-5-5-5-5----------------|
D|------------------------------------------------------------|
             "But it was never........"

d|--0--0-0-0-7--0-0-9--9--9-9--9--9--101010109----------------|
B|--0--0-0-0-0--0-0-0--0--0-0--0--0--0-0-0-0-0----------------|
G|--0--0-0-0-0--0-0-0--0--0-0--0--0--0-0-0-0-0----------------|
D|--0--0-0-0-0--0-0-0--0--0-0--0--0--0-0-0-0-0----------------|
G|--0--0-0-0-0--0-0-0--0--0-0--0--0--0-0-0-0-0----------------|
D|------------------------------------------------------------|
    "Enough,  I      must go...............and..."

[Chorus]
d|-----0--0-0--0--0-0-0----0--0-0--0--0-0-0-------------------|
B|-----0--0-0--0--0-0-0----0--0-0--0--0-0-0-------------------|
G|-----x--x-x--x--x-x-x----x--x-x--x--x-x-x-------------------|
D|--2--2--2-2--2--2-2-2-0--0--0-0--0--0-0-0-------------------|
G|--4--4--4-4--4--4-4-4-2--2--2-2--2--2-2-2-------------------|
D|--2--2--2-2--2--2-2-2-0--0--0-0--0--0-0-0-------------------|
   "Whooo..........................is gonna..."

d|--0--0--0-0--0--0-0-0-0--0-0-0--0-0-0--0-0-0----------------|
B|--5--5--5-5--5--5-5-3-0--0-0-0--0-0-0--0-0-0----------------|
G|--0--0--0-0--0--0-0-0-0--0-0-0--0-0-0--0-0-0----------------|
D|--0--0--0-0--0--0-0-0-0--0-0-0--0-0-0--0-0-0----------------|
G|--5--5--5-5--5--5-5-5-0--0-0-0--0-0-0--0-0-0----------------|
D|------------------------------------4--4-4-4----------------|
    "save you when i'm gone?..............and..."

d|-----0--0-0--0--0-0-0----0--0-0--0--0-0-0-------------------|
B|-----0--0-0--0--0-0-0----0--0-0--0--0-0-0-------------------|
G|-----x--x-x--x--x-x-x----x--x-x--x--x-x-x-------------------|
D|--2--2--2-2--2--2-2-2-0--0--0-0--0--0-0-0-------------------|
G|--4--4--4-4--4--4-4-4-2--2--2-2--2--2-2-2-------------------|
D|--2--2--2-2--2--2-2-2-0--0--0-0--0--0-0-0-------------------|
  "Who'll.........................watch over..."

(at end of second chorus)
(distortion)
d|---------------------------------|
B|---------------------------------|
G|---------------------------------|
D|-5-5-5-5-5-5-5-5-5-5-5-5-5-5-5-5-|
G|-5-5-5-5-5-5-5-5-5-5-5-5-5-5-5-5-|
D|---------------------------------|
PM . . . . . . . .
(gradually lighten up on palm muting)

[Bridge]
d|---------|
B|---------|
G|---------|
D|-5-5-5-5-|
G|-7-7-7-7-|
D|-5-5-5-5-|
(keep strumming using downstrokes)

d|-----------------------------------|
B|-----------------------------------|
G|-----------------------------------|
D|-4-4-4-4-2-2-2-2-5-5-5-5-5-5-5-5-5-|
G|-6-6-6-6-4-4-4-4-5-5-5-5-5-7-7-7-7-|
D|-4-4-4-4-2-2-2-2-----------5-5-5-5-|

[Chorus]
d|-----0--0-0--0--0-0-0----0--0-0--0--0-0-0-------------------|
B|-----0--0-0--0--0-0-0----0--0-0--0--0-0-0-------------------|
G|-----x--x-x--x--x-x-x----x--x-x--x--x-x-x-------------------|
D|--2--2--2-2--2--2-2-2-0--0--0-0--0--0-0-0-------------------|
G|--4--4--4-4--4--4-4-4-2--2--2-2--2--2-2-2-------------------|
D|--2--2--2-2--2--2-2-2-0--0--0-0--0--0-0-0-------------------|
   "Whooo..........................is gonna..."

d|--0--0--0-0--0--0-0-0-0--0-0-0--0-0-0--0-0-0----------------|
B|--5--5--5-5--5--5-5-3-0--0-0-0--0-0-0--0-0-0----------------|
G|--0--0--0-0--0--0-0-0-0--0-0-0--0-0-0--0-0-0----------------|
D|--0--0--0-0--0--0-0-0-0--0-0-0--0-0-0--0-0-0----------------|
G|--5--5--5-5--5--5-5-5-0--0-0-0--0-0-0--0-0-0----------------|
D|------------------------------------4--4-4-4----------------|
    "save you when i'm gone?..............and..."

d|-----0--0-0--0--0-0-0----0--0-0--0--0-0-0-------------------|
B|-----0--0-0--0--0-0-0----0--0-0--0--0-0-0-------------------|
G|-----x--x-x--x--x-x-x----x--x-x--x--x-x-x-------------------|
D|--2--2--2-2--2--2-2-2-0--0--0-0--0--0-0-0-------------------|
G|--4--4--4-4--4--4-4-4-2--2--2-2--2--2-2-2-------------------|
D|--2--2--2-2--2--2-2-2-0--0--0-0--0--0-0-0-------------------|
  "Who'll.........................watch over..."

[Intro]
d|--0--0-0-0-7--0-0-9--0--0-0--0--0--0-0-0-0-0----------------|
B|--0--0-0-0-0--0-0-0--5--3-3--3--3--3-3-3-3-3----------------|
G|--0--0-0-0-0--0-0-0--0--0-0--0--0--0-0-0-0-0----------------|
D|--0--0-0-0-0--0-0-0--0--0-0--0--0--0-0-0-0-0----------------|
G|--0--0-0-0-0--0-0-0--5--5-5--5--5--5-5-5-5-5----------------|
D|------------------------------------------------------------|

d|--0--0-0-0-7--0-0-9--0--0-0--0--0--0-0-0-0-0----------------|
B|--0--0-0-0-0--0-0-0--5--5-5--5--5--5-5-5-5/7----------------|
G|--0--0-0-0-0--0-0-0--0--0-0--0--0--0-0-0-0-0----------------|
D|--0--0-0-0-0--0-0-0--0--0-0--0--0--0-0-0-0-0----------------|
G|--0--0-0-0-0--0-0-0--5--5-5--5--5--5-5-5-5/7----------------|
D|------------------------------------------------------------|

[Verse]
d|--0--0-0-0-7--0-0-9--0--0-0--0--0--0-0-0-0-0----------------|
B|--0--0-0-0-0--0-0-0--5--3-3--3--3--3-3-3-3-3----------------|
G|--0--0-0-0-0--0-0-0--0--0-0--0--0--0-0-0-0-0----------------|
D|--0--0-0-0-0--0-0-0--0--0-0--0--0--0-0-0-0-0----------------|
G|--0--0-0-0-0--0-0-0--5--5-5--5--5--5-5-5-5-5----------------|
D|------------------------------------------------------------|
            "Leaves are on the ground..."

d|--0--0-0-0-7--0-0-9--0--0-0--0--0--0-0-0-0-0----------------|
B|--0--0-0-0-0--0-0-0--5--5-5--5--5--5-5-5-5/7----------------|
G|--0--0-0-0-0--0-0-0--0--0-0--0--0--0-0-0-0-0----------------|
D|--0--0-0-0-0--0-0-0--0--0-0--0--0--0-0-0-0-0----------------|
G|--0--0-0-0-0--0-0-0--5--5-5--5--5--5-5-5-5/7----------------|
D|------------------------------------------------------------|
            "Fall   has   come..."

d|--0--0-0-0-7--0-0-9--0--0-0--0--0--0-0-0-0-0----------------|
B|--0--0-0-0-0--0-0-0--5--3-3--3--3--3-3-3-3-3----------------|
G|--0--0-0-0-0--0-0-0--0--0-0--0--0--0-0-0-0-0----------------|
D|--0--0-0-0-0--0-0-0--0--0-0--0--0--0-0-0-0-0----------------|
G|--0--0-0-0-0--0-0-0--5--5-5--5--5--5-5-5-5-5----------------|
D|------------------------------------------------------------|
            "Blue skies turning grey..."

d|--0--0-0-0-7--0-0-9--0--0-0--0--0--0-0-0-0-0----------------|
B|--0--0-0-0-0--0-0-0--5--5-5--5--5--5-5-5-5/7----------------|
G|--0--0-0-0-0--0-0-0--0--0-0--0--0--0-0-0-0-0----------------|
D|--0--0-0-0-0--0-0-0--0--0-0--0--0--0-0-0-0-0----------------|
G|--0--0-0-0-0--0-0-0--5--5-5--5--5--5-5-5-5/7----------------|
D|------------------------------------------------------------|
            "Like   my love..."

d|--0--0-0-0-7--0-0-9--0--0-0--0--0--0-0-0-0-0----------------|
B|--0--0-0-0-0--0-0-0--5--3-3--3--3--3-3-3-3-3----------------|
G|--0--0-0-0-0--0-0-0--0--0-0--0--0--0-0-0-0-0----------------|
D|--0--0-0-0-0--0-0-0--0--0-0--0--0--0-0-0-0-0----------------|
G|--0--0-0-0-0--0-0-0--5--5-5--5--5--5-5-5-5-5----------------|
D|------------------------------------------------------------|
            "I try to  carry you..."

d|--0--0-0-0-7--0-0-9--0--0-0--0--0--0-0-0-0-0----------------|
B|--0--0-0-0-0--0-0-0--5--5-5--5--5--5-5-5-5/7----------------|
G|--0--0-0-0-0--0-0-0--0--0-0--0--0--0-0-0-0-0----------------|
D|--0--0-0-0-0--0-0-0--0--0-0--0--0--0-0-0-0-0----------------|
G|--0--0-0-0-0--0-0-0--5--5-5--5--5--5-5-5-5/7----------------|
D|------------------------------------------------------------|
             "and make you whole"

d|--0--0-0-0-7--0-0-9--0--0-0--0--0--0-0-0-0-0----------------|
B|--0--0-0-0-0--0-0-0--5--3-3--3--3--3-3-3-3-3----------------|
G|--0--0-0-0-0--0-0-0--0--0-0--0--0--0-0-0-0-0----------------|
D|--0--0-0-0-0--0-0-0--0--0-0--0--0--0-0-0-0-0----------------|
G|--0--0-0-0-0--0-0-0--5--5-5--5--5--5-5-5-5-5----------------|
D|------------------------------------------------------------|
             "But it was never........"

d|--0--0-0-0-7--0-0-9--9--9-9--9--9--101010109----------------|
B|--0--0-0-0-0--0-0-0--0--0-0--0--0--0-0-0-0-0----------------|
G|--0--0-0-0-0--0-0-0--0--0-0--0--0--0-0-0-0-0----------------|
D|--0--0-0-0-0--0-0-0--0--0-0--0--0--0-0-0-0-0----------------|
G|--0--0-0-0-0--0-0-0--0--0-0--0--0--0-0-0-0-0----------------|
D|------------------------------------------------------------|
    "Enough,  I      must go...............and..."
Suggest correction
comments
print report bad tab
12 comments total. Showing first comments.
0 reply
gab2804 10 Oct 26, 2007 01:36 PM

damn nice job man. thanks alot

0 reply
Seraf 20 Nov 14, 2007 04:30 PM

fantastic tab, thanx soo much for this mate.
5*

-2 reply
shmizer 10 Feb 05, 2008 10:49 PM

think the open struming at the begining should be 575 and the 5005 chord at the begining should be 5505. the one after that should be 5503 and when you slide it up, it should be 7707

guest
You may want to rate the tab now too:
select rating
Wanna post a correction for this tab? Suggest correction