Oops, an error
Loading. Please wait.

Wayward One Bass Tab

version 1
version 1

Whole song

Interactive

1,684 views 1 this week
no commentswrite comment
1 2 3 4 5
please rate
add to favorites
launch autoscroll
font size
0
reset
guitar tuner
Tab Pro tools
  • play this tab
  • loop segment
  • change instrument
  • show fretboard
  • metronome
×
Best way to learn
"Wayward One"
Autoscroll
slow
fast
+/-
esc
set tempo
stop
Contributor
Alter Bridge - "Wayward One"
from the album "Blackbird"
Tabbed by jjhand
5 string Bass tuned down 1/2 step (Bb Eb Ab Db Gb)

Please rate this tab and check out my others as well. Thanks.  

Intro (0:12)
Gb|-------------|--------------|---------------|-------------|--------------|
Db|-------------|--------------|---------------|-------------|----2---------|
Ab|-10----------|--------------|---------------|----------0--|--------------|
Eb|---10--------|-0---------0--|-3----------3--|-2-----------|-0-----0------|
Bb|-----8\------|--------------|---------------|-------------|--------------|

Verse 1:
Gb|----------------|----------------|-----------------|---------------------|
Db|----2-----------|----------------|-----------------|----2----------------|
Ab|----------------|----------------|-----------------|---------------------|
Eb|-0---------0----|-3----------3---|-2------------2--|-0--------0---0-0----|
Bb|----------------|----------------|-----------------|---------------------|

Gb|----------------|----------------|-----------------|---------------------|
Db|----2-----------|----------------|-----4-----------|---------------------|
Ab|----------------|----------------|---------------0-|-------7---(7)\------|
Eb|-0---------0----|-3----------3---|-2-----2-2-------|-0-------------------|
Bb|----------------|----------------|-----------------|---------------------|


Prechorus:
Gb|------------------|----------------|----------------|------------------|
Db|------------------|----------------|----------------|------------------|
Ab|------------------|----------------|----------------|------------------|
Eb|------------------|-0--------------|----------------|------------7\----|
Bb|-1----------------|----------------|-1-----------1--|-0----------------|



Chorus - 
Gb|-----------------|---------------|--------------|---------------------------|
Db|-----------------|---------------|--------------|---------------------------|
Ab|-----------------|---------------|--------------|-3-3-3---2-2-2-------------|
Eb|-0---------------|---------------|-3-------2----|-----------------0-0-0-----|
Bb|------------4----|-0--------1----|--------------|---------------------------|

Gb|--------------------|-----------------|---------|---------------------------|
Db|--------------------|-----------------|---------|---------------------------|
Ab|---------7-----6--9-|----------10-----|---------|---------------------------|
Eb|-0---5/7---7--------|-7------8---8-10-|---------|-8-8-8---7-7-7---0-0-0-----|
Bb|--------------------|-----------------|-8-----7-|---------------------------|
The last two bars can be played like the third and fourth bars, if it works
for you. I transposed the notes on the lower string to make it easier.


Preverse - 
Gb|----------------|----------------|-----------------|---------------------|
Db|----2-------2---|----------------|-----------------|-----2---------------|
Ab|--2-----------2-|-------------0--|--------------0--|---------------------|
Eb|----------------|-3--------------|-2---------------|-0-------0--0-0------|
Bb|----------------|----------------|-----------------|---------------------|



Verse 2
Gb|----------------|----------------|-----------------|---------------------|
Db|----2-------2---|----------------|-----------------|----2----------------|
Ab|----------------|----------------|---------------0-|---------------------|
Eb|-0-------0----0-|-3----------3---|-2-----------2---|-0-------0--0-0------|
Bb|----------------|----------------|-----------------|---------------------|

Gb|----------------|----------------|-----------------|---------------------|
Db|----2-----2-0h2-|----------------|-----------2-0h2-|----2----------------|
Ab|-----------2----|----------------|------------2----|---------------------|
Eb|-0--------------|-3----------3---|-2---------------|-0-------0--0-0------|
Bb|----------------|----------------|-----------------|---------------------|



Prechorus 2:
Gb|------------------|----------------|----------------|------------------|
Db|------------------|----------------|----------------|------------------|
Ab|------------------|----------------|----------------|------------------|
Eb|------------------|-0-------0-0----|----------------|----------7---7---|
Bb|-1----------------|----------------|-1----1---1---1-|-0----------------|


Play Chorus again



Guitar Interlude (at 2:59)
Gb|---------------------|-------------------|
Db|---------------------|-------------------|
Ab|-3----2--------------|-------------------|
Eb|-----------3----2----|-------------------|
Bb|---------------------|-5---------(5)\----| hold then slide off note

play 2x
Gb|---------------------|-------------------|
Db|---------------------|-------------------|
Ab|---------------------|-------7\-------7\-|
Eb|-----------3----2----|-0-0-------0-0-----|
Bb|-0----1--------------|-------------------|

Gb|---------------------|-------------------|
Db|---------------------|-------------------|
Ab|------5----3----2----|-------7\-------7\-|
Eb|-0-------------------|-0-0-------0-0-----|
Bb|---------------------|-------------------|

Gb|---------------------|-----------------|
Db|---------------------|-----------------|
Ab|---------------------|-----------------|
Eb|-----------3----2----|-0---------------|
Bb|-0----1--------------|-----------------|



Acoustic Chorus:
Gb|-----------------|---------------|--------------|---------------------------|
Db|-----------------|---------------|--------------|---------------------------|
Ab|-7----------6----|---------------|--------------|-3-3-3---2-2-2-------------|
Eb|-----------------|--7-------8----|-3-------2----|-----------------0-0-0-----|
Bb|-----------------|---------------|--------------|---------------------------|

Heavy Chorus:
Gb|-----------------|---------------|--------------|---------------------------|
Db|-----------------|---------------|--------------|---------------------------|
Ab|-----------------|---------------|--------------|-3-3-3---2-2-2-------------|
Eb|-0---------------|---------------|-3-------2----|-----------------0-0-0-----|
Bb|------------4----|-0--------1----|--------------|---------------------------|



Guitar Solo:
Gb|--------------------|-----------------|------------|---------------------------|
Db|--------------------|-----------------|------------|---------------------------|
Ab|---------7-----6--9-|----------10-----|------------|---------------------------|
Eb|-0---5/7---7--------|-7------8---8-10-|------------|-8-8-8---7-7-7---0-0-0-----|
Bb|--------------------|-----------------|-8-------7--|---------------------------|

Gb|-------------------|-------------|------------|---------------------------|
Db|-------------------|-------------|------------|---------------------------|
Ab|---------7---------|-------------|------------|-3-3-3---2-2-2-------------|
Eb|-0---5/7---7-------|-------------|-3-------2--|-----------------0-0-0-----|
Bb|---------------4---|-0--------1--|------------|---------------------------|

Ending
Gb|---------------|-----------------|-----------------|
Db|---------------|-----------------|-----------------|
Ab|---------------|-----------------|-----------------|
Eb|---------------|-------------3-2-|-0---------------|
Bb|-3-------------|-2---------------|-----------------|
comments
We did not receive enough feedback on this tab! Please rate:
print report bad tab
1 2 3 4 5
I want to post or [tab]
guest
You may want to rate the tab now too:
select rating
Please do not post tabs as comments. Select "correction" instead!