Oops, an error
Loading. Please wait.

White Knuckles Bass Tab

version 1
version 1

Whole song

Interactive

5,986 views 13 this week
2 commentsread comments
1 2 3 4 5
accurate
x 3
add to favorites
launch autoscroll
font size
0
reset
guitar tuner
Tab Pro tools
  • play this tab
  • loop segment
  • change instrument
  • show fretboard
  • metronome
×
Best way to learn
"White Knuckles"
Autoscroll
slow
fast
+/-
esc
set tempo
stop
Contributor
"White Knuckles" Alter Bridge

I am well aware that Brian uses a 5 string but i don't own one so this is my 4 String tab

C, G, C, F

Intro
F|--------------------------------------------------|
C|--------------------------------------------------|
G|--------------------------7-5-0-------------------|
C|-5-3-0-5-3-0-5-3-0-5-3-0--------5-3-0-5-3-1-5-3-0-|

F|------------------------|
C|---------3--------------|
G|------------------------|
C|-0-0-0-----0-0-0-8-5-0--|

Verse x2
F|-----------------------------|
C|-----------------------------|
G|------------7----------------|
C|-0-0-0-0-0-----0-0-0-0-8-5-0-|

x2
F|------------------------------------------------------|
C|------------------------------------------------------|
G|----------7-----------8-----------7-------------------|
C|-0-0-0-0-----0-0-0-0-----0-0-0-0-------0-0-0-0--8-5-0-|

Pre-Chorus
F|---------------|
C|---------------|
G|---------------|
C|-0---7---5---3-|

Chorus
F|---------------------------------------------------|
C|---------------------------------------------------|
G|---------1-1-1-1-----------------------------------|
C|-0-0-0-0---------3-3-3-3-1-1-1-1-0-1-0-1-5-0-1-0-1-|

F|---------------------------------------------------|
C|---------------------------------------------------|
G|---------1-1-1-1---------3-5-5-5-5---------5-3-----|
C|-0-0-0-0---------3-3-3-3-----------0-1-1-1-----5-3-|


F|---------------------------------------------------|
C|---------------------------------------------------|
G|---------1-1-1-1-----------------------------------|
C|-0-0-0-0---------3-3-3-3-1-1-1-1-0-1-0-1-5-0-1-0-1-|


F|----------------------------------|
C|----------------------------------|
G|---------1-1-1-1------------------|
C|-0-0-0-0---------3-3-3-3-1-1-1-1--|
Intro
Chorus
Pre-Chorus
Chorus

Rest then

F|-------------------------------------------------|
C|-------------------------------------------------|
G|-------------------------------------------------|
C|-5-0-5-0-5-0-5-0-5-7-3-0-3-0-3-0-1-0-1-0-1-0-1-0-|

Break 2 x3

F|-----------------------------------------------------|
C|-----------------------------------------------------|
G|-----------------------------------------------------|
C|-8-8-8-8-8-8-7-7-7-7-7-7-5-3-0-5-3-0-5-3-0-5-3-1-5-4-|

Pre-chorus
Chorus
Intro
comments
We did not receive enough feedback on this tab! Please rate:
print report bad tab
1 2 3 4 5
2 comments total.
0 reply
Fausch wrote on February 20 2010, 09:00 pm

As far as I know, it's in C# and not C. There's some pretty hardcore errors in the intro. I played it and it just didn't sound right to me at all.

0 reply
Fausch wrote on February 20 2010, 09:01 pm

Also, there's way more going on during the chorus. You know Brian Marshall way better than that :P

I want to post or [tab]
guest
You may want to rate the tab now too:
select rating
Please do not post tabs as comments. Select "correction" instead!