Oops, an error
Loading. Please wait.

Wonderful Life Tab

version 1
version 1

Intro

Whole song

Interactive

14,419 views 1 this week
5 commentsread comments
1 2 3 4 5
x 4
add to favorites
launch autoscroll
font size
0
reset
how to read this tab
guitar tuner
Autoscroll
slow
fast
+/-
esc
set tempo
stop
Help us to improve Ultimate-Guitar.com Take our survey!
×
Author
Difficulty
Tuning
novice
D G D G B D
   Hey guys, this is what i play for the
 brand new song Wonderful Life by Alter
Bridge off their new album AB III. I know
 this is might not be 100% correct cause
this is like my first time ever tabing a
song by ear and stuff and hope you like it!!!!!!!
Key-
P = Palm mute
/ = slide up to
h = hammeron

Tuning: Open G tuning (D,G,D,G,B,D)
     P      P      P                P      P        P       P
D--9-----10------7------/12-10-9--------------------------------|
B---------------------------------8------7------3h5------3------|
G------0------0------0----------------0------0--------0-------0-|
D----0------0------0----------------0------0--------0-------0---|
G--0-----0-------0----------------0------0------0--------0------|
D---------------------------------------------------------------|

     P      P                      P      P
D--9-----10------7h8-/12-10-9----------------------|
B--------------------------------8------7------3h5-|
G------0------0----------------------0------0--0---|
D----0------0----------------------0------0----0---|
G--0-----0-------0---------------0------0------0---|
D--------------------------------------------------|
0
(Then the 12 fret Natural Harmonics)
Suggest correction
comments
print report bad tab
5 comments total. Showing first comments.
0 reply
maidenbridge666 121 Sep 12, 2010 12:49 PM

dude? how the sam hell did u manage to tab this out? this song hasnt even been released yet =S im very confused

+1 reply
McNuzzle 10 Sep 20, 2010 09:34 AM

Maiden bridge" search the song on Youtube, then myles says "this will be on the next album". And from interviews we know that there's gonna be one song like "in loving memory" or "watch over you". This is it.

PERFECT TAB MAN!(:

0 reply
Slash181 20 Oct 08, 2010 03:09 PM

 
D--9-----10------7------/12-10-9------------------------
B--------------------------------8------7------3h5------
G----0-0----0-0----0-0-------------0-0----0-0-----------ETC
D-----0------0------0---------------0------0------------
G--0-----0-------0---------------0------0------0--------
D-------------------------------------------------------


Isnt the picking style more like this?

guest
You may want to rate the tab now too:
select rating
Wanna post a correction for this tab? Suggest correction