Oops, an error
Loading. Please wait.

Wonderful Life Tab

version 3
version 3

Intro

Whole song

Interactive

2,223 views 1 this week
no commentswrite comment
1 2 3 4 5
please rate
add to favorites
launch autoscroll
font size
0
reset
how to read this tab
guitar tuner
Autoscroll
slow
fast
+/-
esc
set tempo
stop
Help us to improve Ultimate-Guitar.com Take our survey!
×
Author
Difficulty
Tuning
novice
D G D G B D
Tuning: Open G tuning (D,G,D,G,B,D)
D--9-----10------7------/12-10-9--------------------------------|
B---------------------------------8------7------3h5------3------|
G------0------0------0----------------0------0--------0-------0-|
D---------------------------------------------------------------|
G---------------------------------------------------------------|
D---------------------------------------------------------------|
                                                         
D--9-----10------7---/12-10-9---------------------------*12--|
B--------------------------------8------7------3h5------*12--|
G------0------0----0-----------------0------0-----------*12--|
D------------------------------------------------------------|
G------------------------------------------------------------|
D------------------------------------------------------------|
Suggest correction
Give kudos to tab author, rate the tab!
1 2 3 4 5
comments
print report bad tab
guest
You may want to rate the tab now too:
select rating
Wanna post a correction for this tab? Suggest correction