Oops, an error
Loading. Please wait.

You Will Be Remembered tab

904 views 18 this week
3 commentsread comments
1 2 3 4 5
x 5
add to favorites
×
Save as Personal and add changes to this tab that will be seen only by you. Learn more ›
×
You can save this tab as Personal to edit and correct it or add notes. All changes will be seen only by you. Learn more »
launch autoscroll
font size
0
reset
how to read this tab
guitar tuner
edit
Autoscroll
slow
fast
+/-
esc
set tempo
stop
About this tab version
Full song tab with both guitar parts - gathered from album and youtube footage. Was this info helpful? Yes No
Artist/Song:   Alter Bridge - You Will be Remembered
Album:         The Last Hero
Tuning:        Gtr1 (Myles) - Drop C#
               Gtr2 (Mark)  - Drop  B ( B F# B E G# C# )
Tabbed by:     jjhand using the following footage - 
               https://www.youtube.com/watch?v=Gtm_9axppmQ

I indicated the 2 guitar parts as Gtr1 and Gtr2 since they appear
to be tuned differently in live footage. Gtr1 parts could be 
played on Gtr2 by adding 2 to each note, but the solo requires Drop B tuning. 
Please rate or comment.


[Gtr1 Intro]
D#|----------------------------|----------------------------|
A#|-------8------------8-------|-------8------------8-------|
F#|-----7------------7---7---7-|-----5------------5---5---5-|
C#|-5--------------5-------5---|-5--------------5-------5---|
G#|----------------------------|----------------------------|
C#|----------------------------|----------------------------|

D#|----------------------------|--------------------7p5-----|
A#|-------8------------8-------|-------8----------------8---|
F#|-----7------------7---7---7-|-----5------------5-------5-|
C#|-5--------------5-------5---|-5--------------5-----------|
G#|----------------------------|----------------------------|
C#|----------------------------|----------------------------|



[Verse] - Play Intro part again with lyrics:

"I wrote these words to tell you all the  
 things I should've said so long ago,      so long ago"

 

[Gtr2 Verse Riff 1] - Gtr1 plays Intro throughout
C#|----------------------------|--------------------------|
G#|----------------------------|--------------------------|
E |----------------------------|--------------------------|
B |-------11---------11b12r----|-------12-----------------|
F#|-0---0----------0-----------|--------------------------|
B |----------------------------|-0---0--------------------|
 "Know that I am grateful I will not forget or let your memory"

C#|----------------------------|--------------------------|
G#|----------------------------|--------------------------|
E |----------------------------|--------------------------|
B |-------11---------11b12r----|-------12-----------------|
F#|-0---0----------0-----------|----------------12--------|
B |----------------------------|-0---0--------------------|
  "go,                    No, I won't       I waited way too" 

C#|----------------------------|--------------------------|
G#|----------------------------|--------------------------|
E |----------------------------|--------------------------|
B |-------11---------11b12r----|-------12-----------------|
F#|-0---0----------0-----------|--------------------------|
B |----------------------------|-0---0--------------------|
  "long"
 
C#|----------------------------|--------------------------|
G#|----------------------------|--------------------------|
E |----------------------------|--------------------6--7--|
B |-------11---------11b12r----|-------12-----------7--7--|
F#|-0---0----------0-----------|--------------------0--0--|
B |----------------------------|-0---0--------------------|
                       "Way too long"



[Gtr2 Verse Riff 2] - Gtr1 plays Intro throughout, with distortion
C#|---------------------------------|-----------------------------------|
G#|---------------------------------|-----------------------------------|
E |-9---6-7-9---6-7-9---6-7-9---7-6-|-7---7-7-7--/11-11-11--9-9-9---6-7-|
B |-7---7-7-7---7-7-7---7-7-7---7-7-|-0---0-0-0---0--0--0---0-0-0---7-7-|
F#|-0---0-0-0---0-0-0---0-0-0---0-0-|-0---0-0-0---------------------0-0-|
B |---------------------------------|-----------------------------------|
  "I know this life's a mystery, we lose the things we never can replace"

C#|---------------------------------|---------------------------------|
G#|---------------------------------|---------------------------------|
E |-9---6-7-9---6-7-9---6-7-9---7-4-|-2---2-2-2---2-2-2---2-2-2---6-7-|
B |-7---7-7-7---7-7-7---7-7-7---0-0-|-0---0-0-0---0-0-0---0-0-0---7-7-|
F#|-0---0-0-0---0-0-0---0-0-0-------|-----------------------------0-0-|
B |---------------------------------|---------------------------------|
                                "No"

C#|---------------------------------|-----------------------------------|
G#|---------------------------------|-----------------------------------|
E |-9---6-7-9---6-7-9---6-7-9---7-6-|-7---7-7-7--/11-11-11--9-9-9---6-7-|
B |-7---7-7-7---7-7-7---7-7-7---7-7-|-0---0-0-0---0--0--0---0-0-0---7-7-|
F#|-0---0-0-0---0-0-0---0-0-0---0-0-|-0---0-0-0---------------------0-0-|
B |---------------------------------|-----------------------------------|
  "So many things we keep inside are never said until it's much too" 


C#|---------------------------------|---------------------------------|
G#|---------------------------------|---------------------------------|
E |-9---6-7-9---6-7-9---6-7-9---7-4-|-2---2-2-4---4-4-6---6-6-7---7-7-|
B |-7---7-7-7---7-7-7---7-7-7---0-0-|-0---0-0-0---0-0-0---0-0-0---0-0-|
F#|-0---0-0-0---0-0-0---0-0-0-------|---------------------------------|
B |---------------------------------|---------------------------------|
   "late                        Oh               So I'm giving you this"




[Prechorus Riff]
    Gtr1
D#|-2-------2-------2--2------------|-------------------------------|
A#|-3-------3-------3--3------------|-------------------------------|
F#|-2-------2-------2--2---------5--|-----5--5-----5--5--5--5----5--|
C#|-0-------0-------0--0---------5--|-----5--5-----5--5--5--5----5--|
G#|-0-------0-------0--0---------3--|-----3--3-----3--3--3--3----3--|
C#|-0-------0-------0--0------------|-------------------------------|
  |
  | Gtr2
C#|---------------------------------|-------------------------------|
G#|---------------------------------|-------------------------------|
E |---------------------------------|-------------11-11-11-11-9-9-9-|
B |-2-------2-------2--2---------0--|-----0--0----------------------|
F#|-2-------2-------2--2---------0--|-----0--0-----9--9--9--9-7-7-7-|
B |-2-------2-------2--2---------0--|-----0--0----------------------|
   "song"


[Chorus 1] 

    Gtr1                                         play line 3x
D#|----------------------------|--------------------------------|
A#|----------------------------|--------------------------------|
F#|-------------------------5--|----5-5-5---5-5-5---5-5-5---5-5-|
C#|-5---5-5-5---5-5-0--0----5--|----5-5-5---5-5-5---5-5-5---5-5-|
G#|-5---5-5-5---5-5-0--0----3--|----3-3-3---3-3-3---3-3-3---3-3-|
C#|-5---5-5-5---5-5-0--0-------|--------------------------------|
  |
  | Gtr2
C#|----------------------------|--------------------------------|
G#|-------------------------3--|----3-3-3---3-3-3---3-3-3---3-3-|
E |-2---2-2-2---2-2---------2--|----2-2-2---2-2-2---2-2-2---2-2-|
B |-2---2-2-2---2-2-2--2----0--|----0-0-0---0-0-0---0-0-0---0-0-|
F#|-0---0-0-0---0-0-2--2----0--|----0-0-0---0-0-0---0-0-0---0-0-|
B |-----------------2--2----0--|----0-0-0---0-0-0---0-0-0---0-0-|
  1. "For the ones who sacrifice it all,         we will sing"
  2. "Who took a stand so we would never fall,   we will sing"
  3. "You will always be a hero,                 we will sing"



[Chorus Ending]
    Gtr1
D#|-------------------------|--------------------------|
A#|----------------------3--|-(3)----------------------|
F#|-3--3--3--3--3--3-----2--|-(2)----------------------|
C#|-3--3--3--3--3--3-----0--|-(0)----------------------|
G#|-1--1--1--1--1--1-----0--|-(0)----------------------|
D#|----------------------0--|-(0)----------------------|
  |
  |
C#|-------------------------|--------------------------|
G#|-------------------------|--------------------------|
E |-5--5--5--5--5--5------9-|-(9)----------------------|
B |-5--5--5--5--5--5------9-|-(9)----------------------|
F#|-3--3--3--3--3--3------7-|-(7)----------------------|
B |-------------------------|--------------------------|
                                      "So you will be re-"
 

D#|---------------------------------|---------------------------------|
A#|---------------------------------|---------------------------------|
F#|-----------------------------5-5-|-5---5-5-5---5-5-5---5-5-5---5-5-|
C#|-5---5-5-5---5-5-5---5-5-5---5-5-|-5---5-5-5---5-5-5---5-5-5---5-5-|
G#|-5---5-5-5---5-5-5---5-5-5---3-3-|-3---3-3-3---3-3-3---3-3-3---3-3-|
C#|-5---5-5-5---5-5-5---5-5-5-------|---------------------------------|
  |
  |
C#|---------------------------------|-----------------------------------|
G#|---------------------------------|-----------------------------------|
E |-9---6-7-9---6-7-9---6-7-9---7-6-|-7---7-7-7--/11-11-11--9-9-9---6-7-|
B |-7---7-7-7---7-7-7---7-7-7---7-7-|-0---0-0-0---0--0--0---0-0-0---7-7-|
F#|-0---0-0-0---0-0-0---0-0-0---0-0-|-0---0-0-0---------------------0-0-|
B |---------------------------------|-----------------------------------|
    "membered            Oh                           You will be re-"

C#|---------------------------------|---------------------------------|
G#|---------------------------------|---------------------------------|
E |-9---6-7-9---6-7-9---6-7-9---7-4-|-2---2-2-2---2-2-2---2-2-2---6-7-|
B |-7---7-7-7---7-7-7---7-7-7---0-0-|-0---0-0-0---0-0-0---0-0-0---7-7-|
F#|-0---0-0-0---0-0-0---0-0-0-------|-----------------------------0-0-|
B |---------------------------------|---------------------------------|
  |
  |
D#|---------------------------------|---------------------------------|
A#|---------------------------------|---------------------------------|
F#|-----------------------------5-5-|-5---5-5-5---5-5-5---5-5-5---5-5-|
C#|-5---5-5-5---5-5-5---5-5-5---5-5-|-5---5-5-5---5-5-5---5-5-5---5-5-|
G#|-5---5-5-5---5-5-5---5-5-5---3-3-|-3---3-3-3---3-3-3---3-3-3---3-3-|
C#|-5---5-5-5---5-5-5---5-5-5-------|---------------------------------|
   "membered             Oh                  Oh           Oh" 




[Verse 2]
    Gtr1
D#|---------------------------------|---------------------------------|
A#|---------------------------------|---------------------------------|
F#|-----------------------------5-5-|-5---5-5-5---5-5-5---5-5-5---5-5-|
C#|-5---5-5-5---5-5-5---5-5-5---5-5-|-5---5-5-5---5-5-5---5-5-5---5-5-|
G#|-5---5-5-5---5-5-5---5-5-5---3-3-|-3---3-3-3---3-3-3---3-3-3---3-3-|
C#|-5---5-5-5---5-5-5---5-5-5-------|---------------------------------|
  |
  | Gtr2
C#|---------------------------------|-----------------------------------|
G#|---------------------------------|-----------------------------------|
E |-9---6-7-9---6-7-9---6-7-9---7-6-|-7---7-7-7--/11-11-11--9-9-9---6-7-|
B |-7---7-7-7---7-7-7---7-7-7---7-7-|-0---0-0-0---0--0--0---0-0-0---7-7-|
F#|-0---0-0-0---0-0-0---0-0-0---0-0-|-0---0-0-0---------------------0-0-|
B |---------------------------------|-----------------------------------|
 "I know you've suffered way too much, I know you gave your all for us to"


D#|---------------------------------|---------------------------------|
A#|---------------------------------|---------------------------------|
F#|-----------------------------5-5-|-5---5-5-5---5-5-5---5-5-5---5-5-|
C#|-5---5-5-5---5-5-5---5-5-5---5-5-|-5---5-5-5---5-5-5---5-5-5---5-5-|
G#|-5---5-5-5---5-5-5---5-5-5---3-3-|-3---3-3-3---3-3-3---3-3-3---3-3-|
C#|-5---5-5-5---5-5-5---5-5-5-------|---------------------------------|
  |
  |
C#|---------------------------------|---------------------------------|
G#|---------------------------------|---------------------------------|
E |-9---6-7-9---6-7-9---6-7-9---7-4-|-2---2-2-2---2-2-2---2-2-2---6-7-|
B |-7---7-7-7---7-7-7---7-7-7---0-0-|-0---0-0-0---0-0-0---0-0-0---7-7-|
F#|-0---0-0-0---0-0-0---0-0-0-------|-----------------------------0-0-|
B |---------------------------------|---------------------------------|
   "be                         Oh, I see"


D#|---------------------------------|---------------------------------|
A#|---------------------------------|---------------------------------|
F#|-----------------------------5-5-|-5---5-5-5---5-5-5---5-5-5---5-5-|
C#|-5---5-5-5---5-5-5---5-5-5---5-5-|-5---5-5-5---5-5-5---5-5-5---5-5-|
G#|-5---5-5-5---5-5-5---5-5-5---3-3-|-3---3-3-3---3-3-3---3-3-3---3-3-|
C#|-5---5-5-5---5-5-5---5-5-5-------|---------------------------------|
  |
  |
C#|---------------------------------|-----------------------------------|
G#|---------------------------------|-----------------------------------|
E |-9---6-7-9---6-7-9---6-7-9---7-6-|-7---7-7-7--/11-11-11--9-9-9---6-7-|
B |-7---7-7-7---7-7-7---7-7-7---7-7-|-0---0-0-0---0--0--0---0-0-0---7-7-|
F#|-0---0-0-0---0-0-0---0-0-0---0-0-|-0---0-0-0---------------------0-0-|
B |---------------------------------|-----------------------------------|
   "I know how much you've sacrificed and all of this you did so selflessly"


D#|---------------------------------|---------------------------------|
A#|---------------------------------|---------------------------------|
F#|-----------------------------5-5-|-5---5-5-5---5-5-5---5-5-5-5-5-5-|
C#|-5---5-5-5---5-5-5---5-5-5---5-5-|-5---5-5-5---5-5-5---5-5-5-5-5-5-|
G#|-5---5-5-5---5-5-5---5-5-5---3-3-|-3---3-3-3---3-3-3---3-3-3-3-3-3-|
C#|-5---5-5-5---5-5-5---5-5-5-------|---------------------------------|
  |
  |
C#|---------------------------------|---------------------------------|
G#|---------------------------------|---------------------------------|
E |-9---6-7-9---6-7-9---6-7-9---7-4-|-2---2-2-4---4-4-6---6-6-7---7-7-|
B |-7---7-7-7---7-7-7---7-7-7---0-0-|-0---0-0-0---0-0-0---0-0-0---0-0-|
F#|-0---0-0-0---0-0-0---0-0-0-------|---------------------------------|
B |---------------------------------|---------------------------------|
                               "Oh               So I'm giving you this"



[Prechorus 2]
    Gtr1
D#|-2-------2-------2--2------------|-------------------------------|
A#|-3-------3-------3--3------------|-------------------------------|
F#|-2-------2-------2--2---------5--|-----5--5-----5--5--5--5----5--|
C#|-0-------0-------0--0---------5--|-----5--5-----5--5--5--5----5--|
G#|-0-------0-------0--0---------3--|-----3--3-----3--3--3--3----3--|
C#|-0-------0-------0--0------------|-------------------------------|
  |
  | Gtr2
C#|---------------------------------|-------------------------------|
G#|---------------------------------|-------------------------------|
E |---------------------------------|-------------11-11---11--9-9-9-|
B |-2-------2-------2--2---------0--|-----0--0----------------------|
F#|-2-------2-------2--2---------0--|-----0--0-----9--9----9--7-7-7-|
B |-2-------2-------2--2---------0--|-----0--0----------------------|
   "song                                     So I'm giving you this"

    Gtr1
D#|-2-------2-------2--2------------|-------------------------------|
A#|-3-------3-------3--3---------*--|-----*--*--*-------------------|
F#|-2-------2-------2--2---------5--|-----5--5--5---5-5-5-5-5-5-5-5-|
C#|-0-------0-------0--0---------5--|-----5--5--5---5-5-5-5-5-5-5-5-|
G#|-0-------0-------0--0---------3--|-----3--3--3---3-3-3-3-3-3-3-3-|
C#|-0-------0-------0--0------------|-------------------------------|
  |                              PM       PM PM PM
  | Gtr2
C#|---------------------------------|-------------------------------|
G#|---------------------------------|-------------------------------|
E |------------------------------*--|-----*--*--*-------------------|
B |-2-------2-------2--2---------0--|-----0--0--0---0---0---0---0---|
F#|-2-------2-------2--2---------0--|-----0--0--0---0---0---0---0---|
B |-2-------2-------2--2---------0--|-----0--0--0---0---0---0---0---|
   "song"                        




[Chorus 2]

    Gtr1                                         play line 3x
D#|----------------------------|--------------------------------|
A#|----------------------------|--------------------------------|
F#|-------------------------5--|----5-5-5---5-5-5---5-5-5---5-5-|
C#|-5---5-5-5---5-5-0--0----5--|----5-5-5---5-5-5---5-5-5---5-5-|
G#|-5---5-5-5---5-5-0--0----3--|----3-3-3---3-3-3---3-3-3---3-3-|
C#|-5---5-5-5---5-5-0--0-------|--------------------------------|
  |
  | Gtr2
C#|----------------------------|--------------------------------|
G#|-------------------------3--|----3-3-3---3-3-3---3-3-3---3-3-|
E |-2---2-2-2---2-2---------2--|----2-2-2---2-2-2---2-2-2---2-2-|
B |-2---2-2-2---2-2-2--2----0--|----0-0-0---0-0-0---0-0-0---0-0-|
F#|-0---0-0-0---0-0-2--2----0--|----0-0-0---0-0-0---0-0-0---0-0-|
B |-----------------2--2----0--|----0-0-0---0-0-0---0-0-0---0-0-|
  1. "For the ones who sacrifice it all,         we will sing"
  2. "Who took a stand so we would never fall,   we will sing"
  3. "You will always be a hero,                 we will sing"




[Gtr2 Bridge] - Gtr2 plays, Gtr1 can strum indicated chords

     A        E               B        F#
C#|-------------------------|-------------------------|
G |--5--------3-------------|-7--------5--------------|
E |-----5----------4--------|----7---------4b5r-------|
B |--------5----------5/----|-------7------------7----|
F#|-------------------------|-------------------------|
B |-------------------------|-------------------------|
  "You'll be remembered, you're still     alive"

C#|-------------------------|----------------7/9~----|
G |--5--------3-------------|-7--------10------------|
E |-----5----------4--------|----7-------------------|
B |--------5----------5/----|-------7----------------|
F#|-------------------------|------------------------|
B |-------------------------|------------------------|
   "Your memory will survive"
 
C#|-------------------------|-------------------------|
G |--5--------3-------------|-7--------5--------------|
E |-----5----------4--------|----7---------4b5r-------|
B |--------5----------5/----|-------7------------7----|
F#|-------------------------|-------------------------|
B |-------------------------|-------------------------|
   "And in the end, all your sacrifice"

C#|-------------------------|------------------------|
G |--5--------3-------------|------------------------|
E |-----5----------4--------|--------------------6-7-|
B |--------5----------5-----|-*--*--*--*--*------7-7-|
F#|-------------------------|-2--2--2--2--2------0-0-|
B |-------------------------|-2--2--2--2--2----------|
  "It made a difference this time"




[Bridge Riff 2] 
    Gtr2
C#|---------------------------------|---------------------------|
G#|---------------------------------|---------------------------|
E |-9---6-7-9---6-7-9---6-7-9---7-6-|-7---------------------6-7-|
B |-7---7-7-7---7-7-7---7-7-7---7-7-|-0---------------------7-7-|
F#|-0---0-0-0---0-0-0---0-0-0---0-0-|-0---------------------0-0-|
B |---------------------------------|---------------------------|
                                        "So I'm giving you this"

C#|---------------------------------|---------------------------------|
G#|---------------------------------|---------------------------------|
E |-9---6-7-9---6-7-9---6-7-9---7-4-|-2---2-2-4---4-4-6---6-6-7---7-7-|
B |-7---7-7-7---7-7-7---7-7-7---0-0-|-0---0-0-0---0-0-0---0-0-0---0-0-|
F#|-0---0-0-0---0-0-0---0-0-0-------|---------------------------------|
B |---------------------------------|---------------------------------|
   "song                                       So I'm giving you this"




[Last Chorus]
    Gtr1                                         play line 3x
D#|----------------------------|--------------------------------|
A#|----------------------------|--------------------------------|
F#|-------------------------5--|----5-5-5---5-5-5---5-5-5---5-5-|
C#|-5---5-5-5---5-5-0--0----5--|----5-5-5---5-5-5---5-5-5---5-5-|
G#|-5---5-5-5---5-5-0--0----3--|----3-3-3---3-3-3---3-3-3---3-3-|
C#|-5---5-5-5---5-5-0--0-------|--------------------------------|
  |
  | Gtr2
C#|----------------------------|--------------------------------|
G#|-------------------------3--|----3-3-3---3-3-3---3-3-3---3-3-|
E |-2---2-2-2---2-2---------2--|----2-2-2---2-2-2---2-2-2---2-2-|
B |-2---2-2-2---2-2-2--2----0--|----0-0-0---0-0-0---0-0-0---0-0-|
F#|-0---0-0-0---0-0-2--2----0--|----0-0-0---0-0-0---0-0-0---0-0-|
B |-----------------2--2----0--|----0-0-0---0-0-0---0-0-0---0-0-|
  1. "For the ones who sacrifice it all,         we will sing"
  2. "Who took a stand so we would never fall,   we will sing"
  3. "You will always be a hero,                 we will sing"


[Last Chorus Ending]
    Gtr1
D#|-------------------------|--------------------------|
A#|----------------------3--|---3--3----3--3----3--3---|
F#|-3--3--3--3--3--3-----2--|---2--2----2--2----2--2---|
C#|-3--3--3--3--3--3-----0--|---0--0----0--0----0--0---|
G#|-1--1--1--1--1--1-----0--|---0--0----0--0----0--0---|
C#|----------------------0--|---0--0----0--0----0--0---|
  |
  |  Gtr2
C#|-------------------------|--------------------------|
G#|-------------------------|--------------------------|
E |-5--5--5--5--5--5------9-|---9--9----9--9----9--9---|
B |-5--5--5--5--5--5------9-|---9--9----9--9----9--9---|
F#|-3--3--3--3--3--3------7-|---7--7----7--7----7--7---|
B |-------------------------|--------------------------|



[Solo] Gtr 2 plays Chorus riff during the solo
C#|-----------------------------------------|---------------------------------|
G#|-14br15----------------------------------|---------------------------------|
E |--------14-11----------------------------|---------------------------------|
B |--------------14-12\11-12\11-9-----------|-----0------0------5N--5N--11h12-|
F#|-------------------------------9-7-5-4-0-|-----7h9----7------5N--5N--------|
B |-----------------------------------------|-0-------------------------------|

C#|-0--------0--------0----------0----------|-21b22r--17------------------------0--0-|
G#|-----------------------------------------|-------------20b22r-17-------------0--0-|
E |------------------------18h19------18h19-|-----------------------16/18-14~--------|
B |-----11h12----11h12----------------------|----------------------------------------|
F#|-----------------------------------------|----------------------------------------|
B |-----------------------------------------|----------------------------------------|

C#|--------------------------------5-0---|-0----0--0-------0----0-----0---0-|
G#|---15\14-10------------10h9---0---2---|-2b3----b3r2-0--------2b3r2-2b3---|
E |------------9/11-11~--------9---------|---------------2------------------|
B |--------------------------------------|----------------------------------|
F#|--------------------------------------|----------------------------------|
B |--------------------------------------|----------------------------------|

C#|-----0-----0----8p5---5-----------------------------|
G#|-8p5---7p5----------5----7p5---8-5------------------|
E |-------------5---------------5-----7br8-5-----------|
B |------------------------------------------7-5-------|
F#|----------------------------------------------7-5-3-|
B |----------------------------------------------------|

C#|--------------------------------------|
G#|--------------------------------------|
E |-5------------------------------------|
B |---7--/7~---5-------------------------|
F#|---------------7p5\3-5-3-0PH----------|
B |--------------------------------------|



[Ending]
D#|---------------------------14---------------------------------|
A#|-15--15--15--15--15--15---------------------------------------|
F#|---------------------------11---------------------------------|
C#|-12--12--12--12--12--12---------------------------------------|
G#|--------------------------------------------------------------|
C#|--------------------------------------------------------------|
  | 
  |
C#|-0-------0-------0----------0---------------------------------|
G#|-3b5-----3b5-----3br5--2-3-/5---------------------------------|
E |--------------------------------------------------------------|
B |--------------------------------------------------------------|
F#|--------------------------------------------------------------|
B |--------------------------------------------------------------|


Key:
| /   slide up
| \   slide down
| h   hammer-on
| p   pull-off
| ~   vibrato
| b   bend
| r   release bend
| N   natural harmonic
| PH  pinch harmonic
| x   Mute note
| *   Accented palm mute (shown above chord)
Suggest correction
Creating personal tab
Creating personal tab
You can edit any tab online and save it as your Personal.

You can edit, replace or remove any tab part or add personal notes – all changes will be seen only by you.

Personal tabs can be accessed anytime from any device, even offline.
Learn more »
comments
print report bad tab
3 comments total.
+1 reply
slash.r0cks 4,820 Dec 14, 2016 08:22 AM

Everything sounds right but either the tunings in your new tabs are insane or Mark and Myles are fucking with their fans for some reason. :P

guest
You may want to rate the tab now too:
select rating
Wanna post a correction for this tab? Suggest correction