Oops, an error
Loading. Please wait.

Singuratate tab

114 views 3 this week
no commentswrite comment
1 2 3 4 5
3 more votes to show rating
add to favorites
×
Save as Personal and add changes to this tab that will be seen only by you. Learn more ›
×
You can save this tab as Personal to edit and correct it or add notes. All changes will be seen only by you. Learn more »
launch autoscroll
font size
0
reset
how to read this tab
guitar tuner
edit
Autoscroll
slow
fast
+/-
esc
set tempo
stop
Tabulature for Alternosfera's Singuratate, from the album Epizodia (2013)

Tuning is Drop D

It is not exactly perfect, and it lacks the rhythm guitar parts, but it contains the main lead guitar.
Tabbed by ear, please send me a message if there is something I can improve

/ - Slide up
\ - Slide down
h - Hammer on
p - Pull off
v - Vibrato
b - bend
r - release

            >Very fast
e|------------------------------------------------------|
B|------------------------------------------------------|
G|--11-11-11-11/12\11--11-11-11-11/12\11--11--11/12\11--| x2
D|------------------------------------------------------| 
A|---9--9--9--9/10\9----9--9--9--9/10\9----9---9/10\9---|
D|------------------------------------------------------|
                                                                     Ring
e|------------------------------------------------------|        e|-------|
B|------------------------------------------------------|        B|-------|
G|--11-11-11-11/12\11--11-11-11-11/12\11--11--11/12\11--| x2 End G|---11--|
D|------------------------------------------------------|        D|-------|
A|---9--9--9--9/10\9----9--9--9--9/10\9----9---9/10\9---|        A|----9--|
D|---0--0--0--0---------0--0--0--0---------0---0--------|        D|-------|

e|----------|
B|----------|
G|--11-9-7--| x6    w/ Delay
D|----------|
A|----------|
D|----------|

e|------------------------------------------------------|
B|------------------------------------------------------|
G|--11-11-11-11/12\11--11-11-11-11/12\11--11--11/12\11--| x2
D|------------------------------------------------------| 
A|---9--9--9--9/10\9----9--9--9--9/10\9----9---9/10\9---|
D|------------------------------------------------------|

e|--------------------------------------|
B|--------------------------------------|
G|--------------------------------------| x2
D|--5-------xx--2-----xx--5----xx-2-----| 
A|--5-x16---xx--2-x16-xx--5-x8-xx-2-x8--|
D|--5-------xx--2-----xx--5----xx-2-----|

e|--------------------------------------------------------|
B|--------------------------------------------------------|
G|--11-11-11-11/12\11--11-11-11-11/12\11--11-11-11/12\11--| x4
D|--------------------------------------------------------| 
A|---9--9--9--9/10\9----9--9--9--9/10\9----9--9--9/10\9---|
D|--------------------------------------------------------|

e|----------|
B|----------|
G|--11-9-7--| x6    w/ Delay
D|----------|
A|----------|
D|----------|

e|--------------------------------------------------------|
B|--------------------------------------------------------|
G|--11-11-11-11/12\11--11-11-11-11/12\11--11-11-11/12\11--| x2
D|--------------------------------------------------------| 
A|---9--9--9--9/10\9----9--9--9--9/10\9----9--9--9/10\9---|
D|--------------------------------------------------------|

e|----------|
B|----------|
G|--11-9-7--| x6    w/ Delay
D|----------|
A|----------|
D|----------|

e|--------------------------------------------------------|
B|--------------------------------------------------------|
G|--11-11-11-11/12\11--11-11-11-11/12\11--11-11-11/12\11--| x2
D|--------------------------------------------------------| 
A|---9--9--9--9/10\9----9--9--9--9/10\9----9--9--9/10\9---|
D|--------------------------------------------------------|

e|--------------------------------------------------------|
B|--------------------------------------------------------|
G|--------------------------------------------------------| x1
D|--5-------xx--2-----xx--5----xx-2----xx-9----5----7-----| 
A|--5-x16---xx--2-x16-xx--5-x8-xx-2-x8-xx-9-x8-5-x6-7-x4--|
D|--5-------xx--2-----xx--5----xx-2----xx-9----5----7-----|


e|--------------------------------------|
B|--------------------------------------|
G|--------------------------------------| x1
D|--5-------xx--2-----xx--5----xx-2-----| 
A|--5-x16---xx--2-x16-xx--5-x8-xx-2-x8--|
D|--5-------xx--2-----xx--5----xx-2-----|

e|--------------------------------------------------------|
B|--------------------------------------------------------|
G|--11-11-11-11/12\11--11-11-11-11/12\11--11-11-11/12\11--| x8
D|--------------------------------------------------------| 
A|---9--9--9--9/10\9----9--9--9--9/10\9----9--9--9/10\9---|
D|--------------------------------------------------------|

            
            
Suggest correction
Creating personal tab
Creating personal tab
You can edit any tab online and save it as your Personal.

You can edit, replace or remove any tab part or add personal notes – all changes will be seen only by you.

Personal tabs can be accessed anytime from any device, even offline.
Learn more »
Give kudos to tab author, rate the tab!
1 2 3 4 5
comments
print report bad tab
guest
You may want to rate the tab now too:
select rating
Wanna post a correction for this tab? Suggest correction