Oops, an error
Loading. Please wait.

Ones Who Love You bass

version 1
version 1

Whole song

  • This tab excludes some very subtle chorus embellis... Show more

Interactive

by Alvvays
116 views 12 this week
no commentswrite comment
1 2 3 4 5
2 more votes to show rating
add to favorites
×
Save as Personal and add changes to this tab that will be seen only by you. Learn more ›
×
You can save this tab as Personal to edit and correct it or add notes. All changes will be seen only by you. Learn more »
launch autoscroll
font size
0
reset
guitar tuner
edit
Autoscroll
slow
fast
+/-
esc
set tempo
stop
About this tab version
This tab excludes some very subtle chorus embellishments that can be heard on the album version. Was this info helpful? Yes No
[Verse 1]  
(play 5 times)
G|---------------|---------------|-----------------------|-----------------------|
D|---------------|---------------|-----------------------|-----------------------|
A|5-5-5-5-5-5-5-5|5-5-5-5-5-5-5-5|10-10-10-10-10-10-10-10|12-12-12-12-12-12-12-12|
E|---------------|---------------|-----------------------|-----------------------|
 
[Chorus 1] 
don't play
 
[Verse 2]  
(play 5 times)
G|---------------|---------------|-----------------------|-----------------------|
D|---------------|---------------|-----------------------|-----------------------|
A|5-5-5-5-5-5-5-5|5-5-5-5-5-5-5-5|10-10-10-10-10-10-10-10|12-12-12-12-12-12-12-12|
E|---------------|---------------|-----------------------|-----------------------|

(6th time play)
G|---------------|---------------|-----------------------|-----------------------|
D|---------------|---------------|-----------------------|-----------------------|
A|5-5-5-5-5-5-5-5|9-9-9-9-9-9-9-9|10-10-10-10-10-10-10-10|12-12-12-12-12-12-12-12|
E|---------------|---------------|-----------------------|-----------------------|
 
[Chorus 2] 
G|-----------------------|-----------------------|-----------------------|-----------------------|
D|-----------------------|-----------------------|-----------------------|-----------------------|
A|10-10-10-10-10-10-10-10|10-10-10-10-10-10-10-10|12-12-12-12-12-12-12-12|12-12-12-12-12-12-12-12|
E|-----------------------|-----------------------|-----------------------|-----------------------|

G|-----------------------|-----------------------|-----------------------|-----------------------|
D|-----------------------|-----------------------|-----------------------|-----------------------|
A|10-10-10-10-10-10-10-10|10-10-10-10-10-10-10-10|12-12-12-12-12-12-12-12|12-12-12-12-12-12-12-12|
E|-----------------------|-----------------------|-----------------------|-----------------------|

G|---------------|-----------------|---------------------|----------------------|
D|---------------|-----------------|---------------------|----------------------|
A|7-7-7-7-7-5---5|7-7-7-7-9---10---|12-12-12-12-12-10--10|12-12-12-12-12-10-7-5-|
E|------------7--|-----------------|-----------------12--|----------------------|

G|---------------|-----------------|---------------------|-----------------|
D|---------------|-----------------|---------------------|-----------------|
A|7-7-7-7-7-5---5|7-7-7-7-9---10---|12-12-12-12-12-12-12\|0-0-0-0-0-0-4*---|
E|------------7--|-----------------|---------------------|-----------------|

\(slide down to the open A from the 12)
*(this C# is muted very quickly after plucking)
 
[Bridge] 
G|---------------|---------------|-----------------------|-----------------------|
D|---------------|---------------|-----------------------|-----------------------|
A|5-5-5-5-5-5-5-5|5-5-5-5-5-5-5-5|10-10-10-10-10-10-10-10|12-12-12-12-12-12-12-12|
E|---------------|---------------|-----------------------|-----------------------|

G|---------------|---------------|-----------------------|-----------------------|
D|---------------|---------------|-----------------------|-----------------------|
A|5-5-5-5-5-5-5-5|5-5-5-5-5-5-5-5|14-14-14-14-14-14-14-14|16-16-16-16-16-16-16-16|
E|---------------|---------------|-----------------------|-----------------------|

G|-----------------------|-----------------------|
D|-----------------------|-----------------------|
A|14-14-14-14-14-14-14-14|12-12-12-12-12-12-12-12|
E|-----------------------|-----------------------|
 
[Chorus 3] 
G|-----------------------|-----------------------|-----------------------|-----------------------|
D|-----------------------|-----------------------|-----------------------|-----------------------|
A|10-10-10-10-10-10-10-10|10-10-10-10-10-10-10-10|12-12-12-12-12-12-12-12|12-12-12-12-12-12-12-12|
E|-----------------------|-----------------------|-----------------------|-----------------------|

G|-----------------------|-----------------------|-----------------------|-----------------------|
D|-----------------------|-----------------------|-----------------------|-----------------------|
A|10-10-10-10-10-10-10-10|10-10-10-10-10-10-10-10|12-12-12-12-12-12-12-12|-----------------------|
E|-----------------------|-----------------------|-----------------------|-----------------------|

G|---------------|-----------------|---------------------|----------------------|
D|---------------|-----------------|---------------------|----------------------|
A|7-7-7-7-7-5---5|7-7-7-7-9---10---|12-12-12-12-12-10--10|12-12-12-12-12-10-7-5-|
E|------------7--|-----------------|-----------------12--|----------------------|

G|---------------|-----------------|---------------------|-----------------|
D|---------------|-----------------|---------------------|-----------------|
A|7-7-7-7-7-5---5|7-7-7-7-9---10---|12-12-12-12-12-12-12\|0-0-0-0-0-0-4*---|
E|------------7--|-----------------|---------------------|-----------------|
 
[Outro]  
G|---------------|---------------|-----------------------|-----------------------|
D|---------------|---------------|-----------------------|-----------------------|
A|5-5-5-5-5-5-5-5|5-5-5-5-5-5-5-5|10-10-10-10-10-10-10-10|12-12-12-12-12-12-12-12|
E|---------------|---------------|-----------------------|-----------------------|

G|---------------|---------------|-----------------------|-----------------------|
D|---------------|---------------|-----------------------|-----------------------|
A|5-5-5-5-5-5-5-5|5-5-5-5-5-5-5-5|14-14-14-14-14-14-14-14|16-16-16-16-16-16-16-16|
E|---------------|---------------|-----------------------|-----------------------|

G|-----------------------|-----------------------|
D|-----------------------|-----------------------|
A|14-14-14-14-14-14-14-14|16-16-16-16-12-12-12-12|
E|-----------------------|-----------------------|

G|---------------|---------------|-----------------------|-----------------------|
D|---------------|---------------|-----------------------|-----------------------|
A|5-5-5-5-5-5-5-5|5-5-5-5-5-5-5-5|10-10-10-10-10-10-10-10|12-12-12-12-12-12-12-12|
E|---------------|---------------|-----------------------|-----------------------|



************************************

| \  Slide down
 

************************************

            
            
Suggest correction
Creating personal tab
Creating personal tab
You can edit any tab online and save it as your Personal.

You can edit, replace or remove any tab part or add personal notes – all changes will be seen only by you.

Personal tabs can be accessed anytime from any device, even offline.
Learn more »
Give kudos to tab author, rate the tab!
1 2 3 4 5
comments
print report bad tab
guest
You may want to rate the tab now too:
select rating
Wanna post a correction for this tab? Suggest correction