Oops, an error
Loading. Please wait.

Party Police bass

by Alvvays
1,300 views 12 this week
1 commentread comment
1 2 3 4 5
3 more votes to show rating
add to favorites
×
Save as Personal and add changes to this tab that will be seen only by you. Learn more ›
×
You can save this tab as Personal to edit and correct it or add notes. All changes will be seen only by you. Learn more »
launch autoscroll
font size
0
reset
guitar tuner
edit
Autoscroll
slow
fast
+/-
esc
set tempo
stop
Author
Difficulty
-------------------------------------------------------------------------------
                             PARTY POLICE - Alvvays
-------------------------------------------------------------------------------
Tabbed by: Antonymism
E-mail: tiedup14@gmail.com 

Tuning: Standard

This was my most difficult song yet to tab. Definitely make changes if necessary,
but I think this is really close-- enjoy!

Intro (when base comes in):
G|---------------------------------------------------------------------------|
D|---------------------------------------------------------------------------|
A|-9-9-9-9-9-9-9-9--7-7-7-7-7-7-7-7--5-5-5-5-5-5-5-5--2-2-2-2-2-2-2-2--------|
E|---------------------------------------------------------------------------|

G|---------------------------------------------------------------------------|
D|---------------------------------------------------------------------------|
A|---------------------------------------------------------------------------|
E|-4-4-4-4-------------------------------------------------------------------|


Verse 1:
G|---------------------------------------------------------------------------|
D|---------------------------------------------------------------------------|
A|------------------------2-4--4---4-4-4--4h-7-7-7--5--5---5-5-5--5h-7-5-5---|
E|-5--5---5-5-5--5h-0-5------------------------------------------------------|

G|---------------------------------------------------------------------------|
D|---------------------------------------------------------------------------|
A|------------7--7--7---7----------------------------------------------------|
E|-5--5---5-7---------5------------------------------------------------------|

G|---------------------------------------------------------------------------|
D|---------------------------------------------------------------------------|
A|------------------------2-4--4---4-4-4--4h-7-7-7--5--5---5-5-5--5h-7-5-5---|
E|-5--5---5-5-5--5h-0-5------------------------------------------------------|

G|---------------------------------------------------------------------------|
D|---------------------------------------------------------------------------|
A|---------------------------------------------------------------------------|
E|-5-5-5--7-5--2-2--2h-0-0-2-2-----------------------------------------------|

Chorus 1:
G|---------------------------------------------------------------------------|
D|---------------------------------------------------------------------------|
A|----------------------------------4-4-4-4-4-4-4-4-4-4-4-4~--7--4-----------|
E|-5-5-5-5-5-5-5-5-5-5-5-5~--7--5--------------------------------------------|

G|---------------------------------------------------------------------------|
D|---------------------------------------------------------------------------|
A|-5-5-5-5-5-5-5-5-5-5-5-5~--7--5--12-12-12-12-12-12~--11-9-7~---------------|
E|---------------------------------------------------------------------------|

Verse 2:
G|---------------------------------------------------------------------------|
D|---------------------------------------------------------------------------|
A|-9-9-9-9-9-9-9-9--7-7-7-7-7-7-7-7--5-5-5-5-5-5-5-5--2-2-2-2-2-2-2-2--------|
E|---------------------------------------------------------------------------|

G|---------------------------------------------------------------------------|
D|---------------------------------------------------------------------------|
A|-9-9-9-9-9-9-9-9--7-7-7-7-7-7-7-7--5-5-5-5-5-5-5-5--2-2-2-2----------------|
E|-------------------------------------------------------------4-4-4-4-------|

Verse 3:
G|---------------------------------------------------------------------------|
D|---------------------------------------------------------------------------|
A|------------------------2-4--4---4-4-4--4h-7-7-7--5--5---5-5-5--5h-7-5-5---|
E|-5--5---5-5-5--5h-0-5------------------------------------------------------|

G|---------------------------------------------------------------------------|
D|---------------------------------------------------------------------------|
A|------------7--7--7---7----------------------------------------------------|
E|-5--5---5-7---------5------------------------------------------------------|

G|---------------------------------------------------------------------------|
D|---------------------------------------------------------------------------|
A|------------------------2-4--4---4-4-4--4h-7-7-7--5--5---5-5-5--5h-7-5-5---|
E|-5--5---5-5-5--5h-0-5------------------------------------------------------|

G|---------------------------------------------------------------------------|
D|---------------------------------------------------------------------------|
A|---------------------------------------------------------------------------|
E|-5-5-5--7~7~7~7h-3-3-4-4---------------------------------------------------|

Chorus 2:
G|---------------------------------------------------------------------------|
D|---------------------------------------------------------------------------|
A|----------------------------------4-4-4-4-4-4-4-4-4-4-4-4~--7--4-----------|
E|-5-5-5-5-5-5-5-5-5-5-5-5~--7--5--------------------------------------------|

G|---------------------------------------------------------------------------|
D|---------------------------------------------------------------------------|
A|-5-5-5-5-5-5-5-5-5-5-5-5~--7--5--12-12-12-12-12-12~--11-9-7~---------------|
E|---------------------------------------------------------------------------|

G|---------------------------------------------------------------------------|
D|---------------------------------------------------------------------------|
A|-9-9-9-9-9-9-9-9--7-7-7-7-7-7-7-7--5-5-5-5-5-5-5-5--2-2-2-2-2-2-2-2--------|
E|---------------------------------------------------------------------------|

G|---------------------------------------------------------------------------|
D|---------------------------------------------------------------------------|
A|-9-9-9-9-9-9-9-9--7-7-7-7-7-7-7-7--5-5-5-5-5-5-5-5--2-2-2-2-2-2-2-2--------|
E|---------------------------------------------------------------------------|

Verse 4:
G|---------------------------------------------------------------------------|
D|---------------------------------------------------------------------------|
A|-9-9-9-9-9-9-9-9--7-7-7-7-7-7-7-7--5-5-5-5-5-5-5-5--2-2-2-2-0-2-0----------|
E|---------------------------------------------------------------------------|
*(This part is low- not sure if it's correct)
G|---------------------------------------------------------------------------|
D|---------------------------------------------------------------------------|
A|-2-2-2-2--2-2-2-2--5-5-0-0-------------------------------------------------|
E|---------------------------------------------------------------------------|(x5)

G|---------------------------------------------------------------------------|
D|---------------------------------------------------------------------------|
A|-2-2-2-2--5-5-5-5--7-7-7~--------------------------------------------------|
E|---------------------------------------------------------------------------|

(No bass for a bit)

G|---------------------------------------------------------------------------|
D|---------------------------------------------------------------------------|
A|-9-9-9-9----9h--7-7-7------5-5-5-5-5-5-5-5--2-2-2-2-2-2-2-2----------------|
E|---------------------------------------------------------------------------|

G|---------------------------------------------------------------------------|
D|---------------------------------------------------------------------------|
A|-9-9-9-9-9-9-9-9--7-7-7-7-7-7-7-7--6-6-6-6-6-6-6-6--5-5-5-5-5-5-5-5--------|
E|---------------------------------------------------------------------------|

Outro:
G|---------------------------------------------------------------------------|
D|---------------------------------------------------------------------------|
A|-9-9-9-9-9-9-9-9--7-7-7-7-7-7-7-7--5-5-5-5-5-5-5-5--2-2-2-2-2-2-2-2--------|
E|---------------------------------------------------------------------------|

G|---------------------------------------------------------------------------|
D|---------------------------------------------------------------------------|
A|-9-9-9-9-9-9-9-9--7-7-7-7-7-7-7-7--5-5-5-5-5-5-5-5/14-14-14-14-14-14-14-14-|
E|---------------------------------------------------------------------------|

G|---------------------------------------------------------------------------|
D|---------------------------------------------------------------------------|
A|-12(x16)--12~--------------------------------------------------------------|
E|---------------------------------------------------------------------------|


| /  slide up
| \  slide down
| h  hammer-on
| p  pull-off
| ~  vibrato
| +  harmonic
| x  Mute note
===============================================================================
Suggest correction
Creating personal tab
Creating personal tab
You can edit any tab online and save it as your Personal.

You can edit, replace or remove any tab part or add personal notes – all changes will be seen only by you.

Personal tabs can be accessed anytime from any device, even offline.
Learn more »
Give kudos to tab author, rate the tab!
1 2 3 4 5
comments
print report bad tab
1 comment total.
0 reply
tracerrounds 10 Nov 03, 2015 03:03 AM

if anyone's done a cover of this pls send it my way, I need to learn this song but having a hard time figuring out exactly how to play it, it would be super helpful to hear the bass solo.

guest
You may want to rate the tab now too:
select rating
Wanna post a correction for this tab? Suggest correction