Oops, an error
Loading. Please wait.

Aunt Gertrude Bass Tab

53 views 3 this week
no commentswrite comment
1 2 3 4 5
please rate
add to favorites
launch autoscroll
font size
0
reset
guitar tuner
Autoscroll
slow
fast
+/-
esc
set tempo
stop
Help us to improve Ultimate-Guitar.com Take our survey!
×
Difficulty
novice
INTRO
E-----------------------------------------------------------------|      X2
A----------0-0-0-0-0-0-3-3-3-3-3-3-5-5-5-5-5-5-5-3-3-3-3-3-3------|
D-----------------------------------------------------------------|
G-----------------------------------------------------------------|

INTRO/CHORUS
E-----------------------------------------------------------|     X4
A----------00-33-5-5555-------------------------------------|
D-----------------------------------------------------------|
G-----------------------------------------------------------|


 INTRO
E-----------------------------------------------------------------|      X2
A----------0-0-0-0-0-0-3-3-3-3-3-3-5-5-5-5-5-5-5-3-3-3-3-3-3------|
D-----------------------------------------------------------------|
G-----------------------------------------------------------------|

VERSE
E-----------------------------------------------------------------|      X2
A-0-0-0-0-0-0-0-3-3-3-3-3-3-3-5-5-5-5-5-5-5-5-3-3-3-3-3-3-3-------|
D-----------------------------------------------------------------|
G-----------------------------------------------------------------|

CHORUS
E-----------------------------------------------------------|     X4
A----------00-33-5-5555-------------------------------------|
D-----------------------------------------------------------|
G-----------------------------------------------------------|

VERSE
E-----------------------------------------------------------------|      X2
A-0-0-0-0-0-0-0-3-3-3-3-3-3-3-5-5-5-5-5-5-5-5-3-3-3-3-3-3-3-------|
D-----------------------------------------------------------------|
G-----------------------------------------------------------------|


BREAK
E-----------------------------------------------------------|     X8
A----------0-0-3/5-0-0-1------------------------------------|
D-----------------------------------------------------------|
G-----------------------------------------------------------|

CHORUS
E-----------------------------------------------------------|     X4
A----------00-33-5-5555-------------------------------------|
D-----------------------------------------------------------|
G-----------------------------------------------------------|
comments
We did not receive enough feedback on this tab! Please rate:
print report bad tab
1 2 3 4 5
I want to post or [tab]
guest
You may want to rate the tab now too:
select rating
Please do not post tabs as comments. Select "correction" instead!