Oops, an error
Loading. Please wait.

Bullseye tab

version 1
version 1

Whole song

3,471 views 6 this week
3 commentsread comments
1 2 3 4 5
x 5
add to favorites
×
Save as Personal and add changes to this tab that will be seen only by you. Learn more ›
×
You can save this tab as Personal to edit and correct it or add notes. All changes will be seen only by you. Learn more »
launch autoscroll
font size
0
reset
how to read this tab
guitar tuner
edit
Autoscroll
slow
fast
+/-
esc
set tempo
stop
Author
Difficulty
-------------------------------------------------------------------------------
                              Bullseye - Aly & Aj
-------------------------------------------------------------------------------

Email: pleaze_shut_up@yahoo.com

Tuning: Standard E



Intro: Idle


Verse 1:

Idle until

"You're blowing all your attention on me..."
e|----------------------|
B|----------------------|
G|--5555-777------------| x3
D|--5555-777-77777777---| 
A|--3333-555-77777777---|
E|-----------55555555---|

"Maybe try a little kiss..."
e|-------------------------------------|
B|-------------------------------------|
G|--5555-------------------------------|
D|--5555-5555-77x--5/77x--5/77x--5/7x--|
A|--3333-5555-77x--5/77x--5/77x--5/7x--|
E|-------3333-55x--3/55x--3/55x--3/5x--|


Chorus:

"You hit the bullseye baby..."
e|----------------------|
B|----------------------|
G|--5555-777------------| x3
D|--5555-777-77777777---|
A|--3333-555-77777777---|
E|-----------55555555---|

"Hit it!"
e|-----------------------------------|
B|-----------------------------------|
G|--55x--77x---------55x-------------|
D|--55x--77x--77x----55x--55x--77x---|
A|--33x--55x--77x----33x--55x--77x---|
E|------------55x---------33x--55x---|

Riff:
e|-------------------------------------------------|
B|--10h12p10---------------------------------------|
G|-----------12-9h12p9-----------------------------|
D|---------------------12-10h12p10-----------------|
A|---------------------------------12-10h12p10-----|
E|---------------------------------------------12--|

e|---------------------------------------------------|
B|--10h12p10-----------------------------------------|
G|-----------12-9h12p9-------------------------------|
D|---------------------12----------------------------|
A|------------------------121212-12-12-121212-12-12--|
E|---------------------------------------------------|


Verse 2:

Idle until

"I like the way you're all dressed up, messed up..."
e|----------------------|
B|----------------------|
G|--5555-777------------| x3
D|--5555-777-77777777---| 
A|--3333-555-77777777---|
E|-----------55555555---|

"Then you whispered in my ear..."
e|-------------------------------------|
B|-------------------------------------|
G|--5555-------------------------------|
D|--5555-5555-77x--5/77x--5/77x--5/7x--|
A|--3333-5555-77x--5/77x--5/77x--5/7x--|
E|-------3333-55x--3/55x--3/55x--3/5x--|


Repeat Chorus


Bridge: 

"You didn't ask me for my number?..."
*You can either be idle or softly play*:
e|--------------------------------------|
B|--------------------------------------|
G|--5555-777-----------5555-------------|  x2
D|--5555-777-77777777--5555-555-77777777| 
A|--3333-555-77777777--3333-555-77777777|
E|-----------55555555-------333-55555555|



Solo
e|-----------------------------10------------------------------------------------------
B|--12-12-12p10-12p10-12p10-12----12-10-8--8h10-10p8-10p8-10-^11-10-8------------------
G|--------------------------------------------------------------------9-7---^7-^7------
D|------------------------------------------------------------------------10------10-7-
A|-------------------------------------------------------------------------------------
E|-------------------------------------------------------------------------------------

e|-------------------------------------------------------------------------------------|
B|------------8---8-10--8-10--8h10-10-10p8-10-12--8h10-10-10p8-10-12--8h10-10-10p8-12--|
G|--------7-9---9----------------------------------------------------------------------|
D|--77-10------------------------------------------------------------------------------|
A|-------------------------------------------------------------------------------------|
E|-------------------------------------------------------------------------------------|


Repeat Chorus

"Hit it!"
e|------------------|
B|------------------|
G|--55x-------------|
D|--55x--55x--77x---|
A|--33x--55x--77x---|
E|-------33x--55x---|

"Yeah, Yeah, Yeah, You hit the bullseye..."
e|----------------------|
B|----------------------|
G|--5555-777------------| x3
D|--5555-777-77777777---| 
A|--3333-555-77777777---|
E|-----------55555555---|

End with:
e|---------------------|
B|---------------------|
G|--55x--77x-----------|
D|--55x--77x--77x------|
A|--33x--55x--77x------|
E|------------55x------|

            
            
Suggest correction
Creating personal tab
Creating personal tab
You can edit any tab online and save it as your Personal.

You can edit, replace or remove any tab part or add personal notes – all changes will be seen only by you.

Personal tabs can be accessed anytime from any device, even offline.
Learn more »
comments
print report bad tab
3 comments total.
0 reply
xgdschickx 10 Jul 16, 2007 07:06 AM

WOW!!! This is 100% accurate!! I seriously was like "Ok sure" and then I played it and I had a blast!! Thanks so much for this! You're really talented!

0 reply
xawakeningx 26 Jul 20, 2007 08:08 PM

uh im not sure about the riff i just posted one but its not up yet... maybe u should take a look.. but everything else seems fine good job =]

0 reply
xgdschickx 10 Jul 31, 2007 02:23 AM

The riff is 100% correct, I'm sure.But if you listen closely, throughout the verse there is plucking on the low E of the chords you play in the chorus and the riff. I'm going to have to put my own version up lol.

guest
You may want to rate the tab now too:
select rating
Wanna post a correction for this tab? Suggest correction