Oops, an error
Loading. Please wait.

Collapsed tab

version 1
version 1

Whole song

Interactive

1,494 views 1 this week
4 commentsread comments
1 2 3 4 5
2 more votes to show rating
add to favorites
×
Save as Personal and add changes to this tab that will be seen only by you. Learn more ›
×
You can save this tab as Personal to edit and correct it or add notes. All changes will be seen only by you. Learn more »
launch autoscroll
font size
0
reset
how to read this tab
guitar tuner
edit
Autoscroll
slow
fast
+/-
esc
set tempo
stop
Author
                             Collapsed- Aly and AJ


Hope you like it and have fun...
E-mail me at t2wksfrm20@yahoo.com for any questions, comments, or concerns.


Tuning:Standard

e |---------------------------------------------------------------------------|
B|--------------------------------------------------------------------------|
G|--------------------------------------------------------------------------|         
D|----7---10--------7---10----------7----10--------12----10--9--------------|          
A|----------------8----------------8----------------------------------------|         
E|--------------------------------------------------------------------------|         

Repeat Throughout Verse

Pre-Chorus
      C5            A5              D5
e|---------------------------------------------------|
B|---------------------------------------------------|
G|--5--==============7-------------------------------|
D|--5--==============7===============7---------------|
A|--3--==============7===============5---------------|
E|-----------------------------------5---------------|

     Why did I let you go    you're too good to be true

       C5             A5            G5
e|---------------------------------------------------|
B|---------------------------------------------------|
G|---5================-------------------------------|
D|---5================7==============5---------------|
A|---3================7==============5---------------|
E|--------------------5==============3---------------|
      I messed it up and now I don't know what to do

       C5         A5           G5
e|---------------------------------------------------|
B|---------------------------------------------------|
G|---5============-----------------------------------|
D|---5============7=============5--------------------|
A|---3============7=============5--------------------|
E|----------------5=============3--------------------|

We ran in circles and wasted time from right to wrong from right to wrong

Chorus
       C5       A5               G5
e|---------------------------------------------------|
B|---------------------------------------------------|
G|---5==========-------------------------------------|
D|---5==========7=================5------------------|
A|---3==========7=================5------------------|
E|--------------5=================3------------------|

     If    I   knew that you were mine
        C5      A5               G5
e|---------------------------------------------------|
B|---------------------------------------------------|
G|---5==========-------------------------------------|
D|---5==========7=================5------------------|
A|---3==========7=================5------------------|
E|--------------5=================3------------------|

     I         wouldn't    of   wasted time
       C5       A5
e|---------------------------------------------------|
B|---------------------------------------------------|
G|---5==========-------------------------------------|
D|---5==========7------------------------------------|
A|---3==========7------------------------------------|
E|--------------5------------------------------------|

     I         Wish I could Erase the past

       C5       A5       G5
e|---------------------------------------------------|
B|---------------------------------------------------|
G|---5===========------------------------------------|
D|---5===========7===========5-----------------------|
A|---3===========7===========5-----------------------|
E|---------------5===========3-----------------------|

     Now its all collapsed   in my lap

Intro

e |---------------------------------------------------------------|      
B|----------------------------------------------------------------|      
G|----------------------------------------------------------------|      
D|----7---10--------7---10----------7----10--------12----10--9----|       
A|-------------8----------------8---------------------------------|
E|----------------------------------------------------------------|

Repeat Throughout Verse

     C5              A5              D5
e|-------------------------------------------------|
B|-------------------------------------------------|
G|--5--==============----------------7-------------|
D|--5--==============7===============7-------------|
A|--3--==============7===============5-------------|
E|-------------------5===============--------------|

     Why did I let you go    you're too good to be true

       C5              A5                     G5
e|-------------------------------------------------|
B|-------------------------------------------------|
G|---5=================----------------------------|
D|---5=================7=======================5---|
A|---3=================7=======================5---|
E|---------------------5=======================3---|
    I messed it up and now I don't know what to do

       C5         A5           G5
e|-------------------------------------------------|
B|-------------------------------------------------|
G|---5============---------------------------------|
D|---5============7=============5------------------|
A|---3============7=============5------------------|
E|----------------5=============3------------------|

We ran in circles and wasted time from right to wrong from right to wrong

Chorus
       C5       A5               G5
e|---------------------------------------------------|
B|---------------------------------------------------|
G|---5==========-------------------------------------|
D|---5==========7=================5------------------|
A|---3==========7=================5------------------|
E|--------------5=================3------------------|

     If    I   knew that you were mine
        C5      A5               G5
e|---------------------------------------------------|
B|---------------------------------------------------|
G|---5==========-------------------------------------|
D|---5==========7=================5------------------|
A|---3==========7=================5------------------|
E|--------------5=================3------------------|

     I         wouldn't    of   wasted time
       C5       A5
e|---------------------------------------------------|
B|---------------------------------------------------|
G|---5==========-------------------------------------|
D|---5==========7------------------------------------|
A|---3==========7------------------------------------|
E|--------------5------------------------------------|

     I         Wish I could Erase the past

       C5       A5       G5
e|---------------------------------------------------|
B|---------------------------------------------------|
G|---5===========------------------------------------|
D|---5===========7===========5-----------------------|
A|---3===========7===========5-----------------------|
E|---------------5===========3-----------------------|

     Now its all collapsed   in my lap

Bridge
C5
My mind is blank just like a clean slate 
A5
Will I meet another guy with the same blue eyes
C5
With the same name and the converse shoes
D5 (or try A5 whichever sounds better to you)
Will he have the same laugh Wear my homemade hat
C5                              A5
Will I make another mistake and think he's just another

A5 x2 C5 x2 (let ring) Fake

C5
Wish I could erase the past 
C5
Wish I could BRING YOU BACK!

Gradually get louder, then rock out after the BRING YOU BACK part

Then chorus twice end on the G5

Hope you like it and have fun...

            
            
Suggest correction
Creating personal tab
Creating personal tab
You can edit any tab online and save it as your Personal.

You can edit, replace or remove any tab part or add personal notes – all changes will be seen only by you.

Personal tabs can be accessed anytime from any device, even offline.
Learn more »
Give kudos to tab author, rate the tab!
1 2 3 4 5
comments
print report bad tab
4 comments total. Showing first comments.
0 reply
Aly&AJ&KBC 134 Aug 15, 2006 06:26 PM

k im just gonna point this out here are the correct lyrics to the bridge.

My mind is blank just like a clean slate
Will I meet another guy with the same blue eyes
And the same name with the converse shoes I gave
Will he have the same laugh
Keep my homemade hat
Bet ill make another mistake
And think he's just another Fake!

0 reply
t2wksfrm20 52 Aug 16, 2006 11:24 AM

Alright thanks but hows the tab...

0 reply
t2wksfrm20 52 Aug 21, 2006 06:47 AM

Its Wear my homemade hat...I know someone that has the CD. The lyrics are in there.

guest
You may want to rate the tab now too:
select rating
Wanna post a correction for this tab? Suggest correction