Oops, an error
Loading. Please wait.

I Am One Of Them tab

1,229 views 1 this week
2 commentsread comments
1 2 3 4 5
1 last vote to show rating
add to favorites
×
Save as Personal and add changes to this tab that will be seen only by you. Learn more ›
×
You can save this tab as Personal to edit and correct it or add notes. All changes will be seen only by you. Learn more »
launch autoscroll
font size
0
reset
how to read this tab
guitar tuner
edit
Autoscroll
slow
fast
+/-
esc
set tempo
stop
Aly & Aj
I am One of Them
Into The Rush Album
2004
Submitted by: paramore_fans@yahoo.com
These 2 sisters are very pretty and talented especially Aly, Her voice is lovable too. I
the way they perform sincerely live, the way they play guitar and the way they write
They might sound Hilary duff, Ashlee simpson and Lindsay Lohan but these chicks aren't
crappy as the 3 I mentioned. Aly & Aj write songs with sense even though pop-rocky. They
sdo plucking at guitar both.

Tuning: Drop D on 3 guitars, piano

to prove to you that this song is played in Drop D, here's the videos to see how they 
especially at the chorus where Aj plays the low E5--F5--G5 if you know what I mean


http://www.youtube.com/watch?v=Vgx-GZMRzAY
http://www.youtube.com/watch?v=MlxgOeehP1w
http://www.youtube.com/watch?v=_BI3Vi3IZO4
http://www.youtube.com/watch?v=jccZ9kDQeyg


Intro:

Aly's part
e|-----5---6---8-----|
B|---6-----------6---|
G|-5-----5---5-------|
D|-------------------| (x8 til verse)
A|-------------------|
D|-------------------|

Aj's part (She will enter at 0:10)
e|------------------------------------|
B|-6-6-6---4-4---11-11-10/11-6-6------|
G|-7-7---7-3-3/5-10-10-------5-5------|
D|-8-8---8-1-1----8--8-------3-3-5-3--| (x2)
A|-5-5-----1-1----8--8-------3-3------|
D|-5-5-----1-1----8--8-------3-3------|

Guitar 3: at 0:08
e|-15-----15-------15---|
B|-----13----13---------|
G|--------------14------|
D|----------------------|
A|----------------------|
D|----------------------|

Verse1:

I get in the car Another tragic disater

Aly: Idle (coz she sings here)

Aj:
e|-----------------------------------------------------------------|
B|-6-6-6---4-4---11-11-10/11-6-6-----6-6-6---4-4---6-6-----6-6-----|
G|-7-7---7-3-3/5-10-10-------5-5-----7-7---7-3-3/5-5-5-----5-5-----|
D|-8-8---8-1-1----8--8-------3-3-5-3-8-8---8-1-1---3-3-----3-3-----|
A|-5-5-----1-1----8--8-------3-3-----5-5-----1-1---3-3-6-5-3-3-3-1-|
D|-5-5-----1-1----8--8-------3-3-----5-5-----1-1---3-3-----3-3-----|

Piano:
e|-6-6-6-6-6-6-6-6---|
B|-6-6-6-6-6-6-6-6---|
G|-7-7-7-7-7-7-7-7---|
D|-------------------|
A|-------------------|
D|-------------------|

The traffic is stopped People just stare

Aly:
e|------------------------------|
B|------------------------------|
G|------------------------------|
D|-5-5---1-1---3-3-3-3-3-3-3-3--|
A|-5-5---1-1---3-3-3-3-3-3-3-3--|
D|-5-5---1-1---3-3-3-3-3-3-3-3--|

Aj:
e|------------------------------|
B|-------------6-6-6-6-6-6-6-6--|
G|-8-8---3-3---5-5-5-5-5-5-5-5--|
D|-5-5---1-1---3-3-3-3-3-3-3-3--|
A|-5-5---1-1---3-3-3-3-3-3-3-3--|
D|-5-5---1-1---3-3-3-3-3-3-3-3--|

Piano:
e|-6-6---6-6---6-6-6-6-6-6-6-6--|
B|-6-6---6-6---6-6-6-6-6-6-6-6--|
G|-7-7---7-7---7-7-7-7-7-7-7-7--|
D|------------------------------|
A|------------------------------|
D|------------------------------|

Another alert does the kids have a prayer

Aly:
e|-----------------------------------|
B|-----------------------------------|
G|-3-3-3-3-3-3-3-3-3-3-3-3-3-3-3-3-3-|
D|-1-1-1-1-1-1-1-0-1-1-1-1-1-1-1-1-1-|
A|-3-3-3-3-3-3-3-1-1-1-1-1-1-1-1-1-1-|
D|---------------0-1-1-1-1-1-1-1-1-1-|

Aj:
e|-----------------------------------|
B|-----------------------------------|
G|-5-5-5-5-5-5-5-7-8-8-8-8-8-8-8-8-8-|
D|-5-5-5-5-5-5-5-7-8-8-8-8-8-8-8-8-8-|
A|-3-3-3-3-3-3-3-5-6-6-6-6-6-6-6-6-6-|
D|-----------------------------------|

Piano:
e|-6-6-6-6-6-6-6-6---|
B|-6-6-6-6-6-6-6-6---|
G|-7-7-7-7-7-7-7-7---|
D|-------------------|
A|-------------------|
D|-------------------|

Life is not fair!!!

Aly:
e|-6-------6-------8-------|
B|---6-------6-------6-8---|
G|-----8-7-----8-7-------5-|
D|-------------------------|
A|-------------------------|
D|-------------------------|

Aj:
e|-------------------------|
B|-------------------------|
G|-5-5-5-5-----------------|
D|-5-5-5-5-1-1-1-1-3-3-3-3-|
A|-3-3-3-3-1-1-1-1-3-3-3-3-|
D|---------1-1-1-1-3-3-3-3-|

Piano:
e|-6-6-6-6-6-6-6-6-8-8-8-8-|
B|-6-6-6-6-6-6-6-6-6-6-6-6-|
G|-7-7-7-7-7-7-7-7-7-7-7-7-|
D|-------------------------|
A|-------------------------|
D|-------------------------|

Chorus:

Its hard to look outside my door

Aly: This Time Aly can pluck faster riffs than before while singing simultaneously
x - means palm mute
e|--------------------------------------------|
B|---------------------11---------------------|
G|-------10-----10--------10-------10---------|
D|---8-----------------------8--------8--- ---|
A|-8---8----8-8----8-8---------8-8-------- ---|
D|---------------------------------------- ---|
   x x x    x x    x x    x    x x    x     |--(x4 these 2 bars)
then                                        |
e|---------------------------------------- ---|
B|--------------------------------11----------|
G|-------10-----8-----7------10/8----10-------|
D|---8--------8-----8---10/8------------------|
A|-8---8----8-----8---------------------------|
D|--------------------------------------------|
   x   x    x   x x   x           x  x

Aj:
e|---------------------------------|
B|-4-4-4-4-4-4-4-4-6-6-6-6-8-8-8-8-|
G|-3-3-3-3-3-3-3-3-5-5-5-5-7-7-7-7-|
D|-1-1-1-1-1-1-1-1-3-3-3-3-5-5-5-5-|
A|-1-1-1-1-1-1-1-1-3-3-3-3-5-5-5-5-|
D|-1-1-1-1-1-1-1-1-3-3-3-3-5-5-5-5-|

Aj: This could have a happy end
e|--------------------------------------|
B|-4-4-4-4-4-4-4-4-6-6-6-6-11-11-11-11--|
G|-3-3-3-3-3-3-3-3-5-5-5-5-10-10-10-10--|
D|-1-1-1-1-1-1-1-1-3-3-3-3--8--8--8--8--|
A|-1-1-1-1-1-1-1-1-3-3-3-3--8--8--8--8--|
D|-1-1-1-1-1-1-1-1-3-3-3-3--8--8--8--8--|

Aj;Cause I.....
e|---------------------------------|
B|-4-4-4-4-4-4-4-4-6-6-6-6-6-6-6-6-|
G|-3-3-3-3-3-3-3-3-5-5-5-5-5-5-5-5-|
D|-1-1-1-1-1-1-1-1-3-3-3-3-3-3-3-3-|
A|-1-1-1-1-1-1-1-1-3-3-3-3-3-3-3-3-|
D|-1-1-1-1-1-1-1-1-3-3-3-3-3-3-3-3-|

Guitar 3:
e|-----6---8---6---8-------6/13\10/11-|
B|---6---6---6---6-----6--------------|
G|-8-----------------8---8------------|
D|------------------------------------|
A|------------------------------------|
D|------------------------------------|

Post Chorus:

Piano: Press The Keys fast
e|-------------------------------------------------------------|
B|--------1--------------1--------------1--------------1-------|
G|----3-----3-2-3----3-----3-2-3----3-----3-2-3----3-----3-2-3-|
D|-5----3----------3---3---------3----3----------3---3---------|
A|-5-----------------------------3-----------------------------|
D|-5-----------------------------3-----------------------------|
then
e|-----------------------------------------|
B|--------1--------------1------------1----|
G|----3-----3-2-3----2-----3-2-3----3----3-|
D|-2----3----------3---3---------1---------|
A|-3-----------------------------1---------|
D|-2-----------------------------1---------|

Guitar 3: at 1:31
e|-15-----15-------15---|
B|-----13----13---------|
G|--------------14------|
D|----------------------|
A|----------------------|
D|----------------------|

(Repeat Verse and Chorus)

Outro:
I am one of them, wish I could bring back...

Aly
e|-----5---6---8-----|
B|---6-----------6---|
G|-5-----5---5-------|
D|-------------------| (repeat until fade out)
A|-------------------|
D|-------------------|

Aj
e|------------------------------------|
B|-6-6-6---4-4---11-11-10/11-6-6------|
G|-7-7---7-3-3/5-10-10-------5-5------|
D|-8-8---8-1-1----8--8-------3-3-5-3--| (repeat until fade out)
A|-5-5-----1-1----8--8-------3-3------|
D|-5-5-----1-1----8--8-------3-3------|

Intro: F(x4) G5-D#5-Bb5-F5 (x2)

______________________________________________________________________________________

CHORDS USED: In Drop D tuning Only
G5  - 55876x
D#5 - 11134x
Bb5 - 8-8-8-10-11-x
F5  - 33356x
C5  - 355xxx
D5  - 000xxx
C/E - 232xxx

Intro: G5-D#5-Bb5-F5(x2)

Verse 1:
  G5         D#5
I get in the car
        Bb5      F5
Another tragic disaster
       G5            D#5
But I'm safe where I am
     Bb5       F5
Yet another is captured
    G5
The traffic is stopped
D#5          F5
People just stare
 C5                D5  D#5
Another alert does the kids have a prayer
C5      D#5 F5
Life is not fair


Chorus:
D#5            F5              G5
   Its hard to look outside my door
D#5             F5               G5
   With all the news reports and more
D#5            F5                   G5
   Yet I would do my part and stay alert
D#5            F5                     G5
   For all the kids out there who are getting hurt
D#5         F5            G5
   It could have happened to me
D#5        F5      G5
   Can you make me believe
D#5           F5     Bb5
   This could have a happy end
D#5     F5
   Cuz' I

am one of them

Post chorus; Piano: G5-F5-C/E-D#5


Verses 2:
  G5          D#5         Bb5          F5
I try to grow up But I am chased by my fears
        G5         D#5      Bb5      F5
It could happen to me And I worry in tears
  G5                D#5             F5
Reports of the girl Makin' me scared
C5            D5  D#5
Led of to die and why was I spared?
C5      D#5 F5
Life is not fair

(Repeat chorus)


Outro:
G5   D#5        Bb5
I am one of them
   F5
Am one of them
G5   D#5        Bb5
I am one of them
   F5
Am one of them
G5   D#5        Bb5
I am one of them
   F5
Am one of them
G5     D#5          Bb5   F5
I wish I could bring back all of them

G5-D#5-Bb5-F5 (Until fade Out)

            
            
Suggest correction
Creating personal tab
Creating personal tab
You can edit any tab online and save it as your Personal.

You can edit, replace or remove any tab part or add personal notes – all changes will be seen only by you.

Personal tabs can be accessed anytime from any device, even offline.
Learn more »
Give kudos to tab author, rate the tab!
1 2 3 4 5
comments
print report bad tab
2 comments total.
0 reply
Leigirl 21 Dec 24, 2006 04:16 AM

This is my FAVORITE song!

0 reply
xawakeningx 26 Aug 14, 2007 03:28 PM

awsome job 5 stars

guest
You may want to rate the tab now too:
select rating
Wanna post a correction for this tab? Suggest correction