Oops, an error
Loading. Please wait.

Jingle Bell Rock tab

version 1
version 1

Whole song

Interactive

34,071 views 3 this week
no commentswrite comment
1 2 3 4 5
x 3
add to favorites
×
Save as Personal and add changes to this tab that will be seen only by you. Learn more ›
×
You can save this tab as Personal to edit and correct it or add notes. All changes will be seen only by you. Learn more »
launch autoscroll
font size
0
reset
how to read this tab
guitar tuner
edit
Autoscroll
slow
fast
+/-
esc
set tempo
stop
Aly and Aj
Jingl Bell Rock
Aly and Aj Demo
2004 Hollywood Records
Tabbed by: paramore_fans@yahoo.com

Tuning: Drop D of both Aly and Aj

Chords used: (Drop D only)
A -      777xxx
AM7 -    776xxx
A6 -     797xxx
F# -     4443xx
Bm -     x24432
E7 -     22213x
E -      2221xx
A7 -     775xxx
B -      999xxx
D -      00423x
Dm -     00323x
BM7 -    998xxx
B6 -     9-11-9-x-x-x
F#/Bb -  898xxx
G#m -    6664xx
B/D# -   121xxx
C#m -    x46654

Intro:

Piano:
e|--9-----------------------|-----------5----------------17-|
B|-10--10---9----9----7h9p7-|---------5---------------17----|
G|--------------------------|-------6--------------18-------|
D|--------7----7----7-------|-----7-------------19----------|
A|--------------------------|---7------------19-------------|
D|--------------------------|-7-----------19----------------|
                                    Fast pressing of keys

then: A--AM7--A6-AM7

Aly:
e|-5-5-5--4-4-4--2-2-2-4-|
B|-2-2-2--2-2-2--2-2-2-2-|
G|-2-2-2--2-2-2--2-2-2-2-|
D|-----------------------| (x2)
A|-----------------------|
D|-----------------------|

Aj:
e|-----------------------|
B|-----------------------|
G|-----------------------|
D|-7-7-7--6-6-6--7-7-7-6-| (x2)
A|-7-7-7--7-7-7--9-9-9-7-|
D|-7-7-7--7-7-7--7-7-7-7-|


Verse 1:
A            AM7          A6          A    A6           F#        Bm           E7
Jingle Bell, Jingle Bell, Jingle Bell Rock Jingle Bells swing and Jingle Bells ring
Bm           E7         Bm         E7 Bm                  E7
Snowing, and blowing up bushels of fun Now the Jingle hop has begun


Verse 2:
A            AM7          A6          A    A6           F#       Bm           E7
Jingle Bell, Jingle Bell, Jingle Bell Rock Jingle Bells chime in Jingle Bell time
Bm          E7          Bm          E7   Bm        E7    A
Dancing and prancing in Jingle Bell Square In the frosty air


Chorus:
       D                    B              A                  A7
What a bright time, it's the right time To rock the night away
       B                        E(hold)
Jingle Bell time is a swell time To go riding in a one-horse sleigh


Verse 3:
A        AM7           A6            A   A6         Bm     F#
Giddy up jingle horse, pick up your feet Jingle around the clock
D                     Dm           E(hold)                 A
Mix and a mingle to a jinglin' beat That's the Jingle Bell rock
A          AM7        A6               AM7 (while Aly and Aj repeats intro)
  Jing rock, jing rock, yeah, jing rock, jing rock (x2)


Interlude:

Aly: Solo
e|------------------------------------------------------|-----------------------------------|
B|------------------------------------------------------|-----------------------------------|
G|------------------------------------------------------|------------9--11--9-------------9-|
D|------------------------------------------------------|-9--11--12------------9--11--12----|
A|-12--12--11--11--9h11p9------9h11p9---------9h11p9----|-----------------------------------|
D|------------------------11----------11--14---------12-|-----------------------------------|
then
e|---------|------------------------------------------------|
B|-10--12--|-10p9-------------------------------------------|
G|---------|------11p10p9-----------------------9---9p8p7---|
D|---------|--------------11p10p9-----------------9-------9-|
A|---------|----------------------12p11p10p19-7-------------|
D|---------|------------------------------------------------|
                very fast

Aj: A-AM7-A6-A--A6-F#-Bm-E7--Bm-E7-Bm-E7-Bm---E7

(Repeat Verse 2)

(Repeat Chorus)

(Repeat Verse 3 except last line)

E(hold)
  That's the Jingle Bell, That's the Jingle Bell
F#(hold)
  That's the Jingle Bell, That's the Jingle Bell rock

B          BM7        B6               BM7
  Jing rock, jing rock, yeah, jing rock, jing rock (x2)
(The jingle bell rock That's the jingle bell rock Jingle Bell, Jingle Bell)


Intro: modulated from A to B

e|-7-7-7--6-6-6--4-4-4-6-|
B|-4-4-4--4-4-4--4-4-4-4-|
G|-4-4-4--4-4-4--4-4-4-4-|
D|-----------------------| (x4)
A|-----------------------|
D|-----------------------|

Aj:
e|--------------------------|
B|--------------------------|
G|--------------------------|
D|-9-9-9--8-8-8---9--9--9-8-| (x4)
A|-9-9-9--9-9-9--11-11-11-9-|
D|-9-9-9--9-9-9---9--9--9-9-|

B  F#/Bb  G#m   F#   E  B/D# C#m F#
Merry     Christmas, Happy   Holidays
B  F#/Bb  G#m   F#   E  B/D# C#m F#  B(hold)
Merry     Christmas, Happy   New Year


Aly: How's that for a Christmas song?

            
            
Suggest correction
Creating personal tab
Creating personal tab
You can edit any tab online and save it as your Personal.

You can edit, replace or remove any tab part or add personal notes – all changes will be seen only by you.

Personal tabs can be accessed anytime from any device, even offline.
Learn more »
Give kudos to tab author, rate the tab!
1 2 3 4 5
comments
print report bad tab
guest
You may want to rate the tab now too:
select rating
Wanna post a correction for this tab? Suggest correction