Oops, an error
Loading. Please wait.

Slow Down tab

version 1
version 1

Whole song

Interactive

1,554 views 1 this week
no commentswrite comment
1 2 3 4 5
1 last vote to show rating
add to favorites
×
Save as Personal and add changes to this tab that will be seen only by you. Learn more ›
×
You can save this tab as Personal to edit and correct it or add notes. All changes will be seen only by you. Learn more »
launch autoscroll
font size
0
reset
how to read this tab
guitar tuner
edit
Autoscroll
slow
fast
+/-
esc
set tempo
stop
Aly and Aj
Slow Down
Into The Rush
2004 Hollywood Records
Submitted by: paramore_fans@yahoo.com

Tuning: Drop D on both Aly and Aj's guitar

Intro:

Aly: Idle

Aj:
e|-------------------------------------------|
B|-------------------------------------------|
G|-3--3--3-3--3-3--3--3-3--3-5--5--5-5--5-5--|
D|-3--3--3-3--3-3--3--3-3--3-3--3--3-3--3-3--|
A|-1--1--1-1--1-1--1--1-1--1-0--0--0-0--0-0--|
D|-------------------------------------------|


Verses:

Aly: Idle

Aj:
e|-----------------------------------------------------|
B|-----------------------------------------------------|
G|-3--3--3-3--3-3--3--3-3--3-5--5--5-5--5-5--5--5-5--5-|
D|-3--3--3-3--3-3--3--3-3--3-3--3--3-3--3-3--3--3-3--3-|
A|-1--1--1-1--1-1--1--1-1--1-0--0--0-0--0-0--0--0-0--0-|
D|-----------------------------------------------------|

Aj:
e|-----------------------------------------------------|
B|---------------------------4--4--4-4--4-4--4--4-4--4-|
G|-3--3--3-3--3-3--3--3-3--3-3--3--3-3--3-3--3--3-3--3-|
D|-3--3--3-3--3-3--3--3-3--3-1--1--1-1--1-1--1--1-1--1-|
A|-5--5--5-5--5-5--5--5-5--5-1--1--1-1--1-1--1--1-1--1-|
D|-5--5--5-5--5-5--5--5-5--5-1--1--1-1--1-1--1--1-1--1-|

Aj
e|-----------------------------------------------------|
B|-----------------------------------------------------|
G|-3--3--3-3--3-3--3--3-3--3-5--5--5-5--5-5--5--5-5--5-|
D|-3--3--3-3--3-3--3--3-3--3-3--3--3-3--3-3--3--3-3--3-|
A|-1--1--1-1--1-1--1--1-1--1-3--3--3-3--3-3--3--3-3--3-|
D|---------------------------3--3--3-3--3-3--3--3-3--3-|

Aj:
e|-----------------------------------------------------------|
B|---------------------------4-4-4-4-4-4-4-4-4-4-4-4-4-4-4-4-|
G|-3--3--3-3--3-3--3--3-3--3-3-3-3-3-3-3-3-3-3-3-3-3-3-3-3-3-|
D|-3--3--3-3--3-3--3--3-3--3-1-1-1-1-1-1-1-1-1-1-1-1-1-1-1-1-|
A|-5--5--5-5--5-5--5--5-5--5-1-1-1-1-1-1-1-1-1-1-1-1-1-1-1-1-|
D|-5--5--5-5--5-5--5--5-5--5-1-1-1-1-1-1-1-1-1-1-1-1-1-1-1-1-|


Chorus: There is also a synthesizer here but I can't figure out it's tab coz it's very fast

Aly: Slow down!!! (listen carefully here)
e|---------------------6-------6---|
B|-----3---6-----4-------3---4---6-|
G|---3---3---3-----3-------3-------|
D|-3-----------3-----3-------------| (x4)
A|---------------------------------|
D|---------------------------------|

Aj:
e|-----------------------------------------------------------------|
B|-8-8-8-8-8-8-8-8-4-4-4-4-4-4-4-4-6-6-6-6-6-6-6-6-8-8-8-8-8-8-8-8-|
G|-7-7-7-7-7-7-7-7-3-3-3-3-3-3-3-3-5-5-5-5-5-5-5-5-7-7-7-7-7-7-7-7-|
D|-5-5-5-5-5-5-5-5-1-1-1-1-1-1-1-1-3-3-3-3-3-3-3-3-5-5-5-5-5-5-5-5-|
A|-5-5-5-5-5-5-5-5-1-1-1-1-1-1-1-1-3-3-3-3-3-3-3-3-5-5-5-5-5-5-5-5-|
D|-5-5-5-5-5-5-5-5-1-1-1-1-1-1-1-1-3-3-3-3-3-3-3-3-5-5-5-5-5-5-5-5-|

Aj:
e|-----------------------------------------------------------------|
B|-8-8-8-8-8-8-8-8-4-4-4-4-4-4-4-4---------------------------------|
G|-7-7-7-7-7-7-7-7-3-3-3-3-3-3-3-3-3-3-3-3-3-3-3-3-2-2-2-2-2-2-2-2-|
D|-5-5-5-5-5-5-5-5-1-1-1-1-1-1-1-1-3-3-3-3-3-3-3-3-3-3-3-3-3-3-3-3-|
A|-5-5-5-5-5-5-5-5-1-1-1-1-1-1-1-1-1-1-1-1-1-1-1-1-0-0-0-0-0-0-0-0-|
D|-5-5-5-5-5-5-5-5-1-1-1-1-1-1-1-1---------------------------------|

Aly: If you just let me breathe...
e|-------------13-11-10-11-------------------------------------------------|
B|-11-13-11----------------11----------------------------------------------|
G|----------10----------------12-10----------------------------------------|
D|----------------------------------12-13-12----10-10-10-10-10-10-10-10-10-|
A|-------------------------------------------13-10-10-10-10-10-10-10-10-10-|
D|----------------------------------------------10-10-10-10-10-10-10-10-10-|

Aj:
e|-----------------------------------|
B|-4-4-4-4-4-4-4-4-4-4-4-4-4-4-4-4-4-|
G|-3-3-3-3-3-3-3-3-5-5-5-5-5-5-5-5-5-|
D|-1-1-1-1-1-1-1-1-5-5-5-5-5-5-5-5-5-|
A|-1-1-1-1-1-1-1-1-3-3-3-3-3-3-3-3-3-|
D|-1-1-1-1-1-1-1-1-------------------|

(Repeat Intro, Verses to chorus)

Bridge:

Aly: (listen carefully here)
e|--------------------------------------------------------13-------15/17/18~--|
B|-----------------------------------------------15\13\11----11/13------------|
G|-------10-----------------------------------15------------------------------|
D|-----8----8/10---------------------------15---------------------------------| (x4)
A|---8-----------8/10----------15\13\12/13------------------------------------|
D|-8------------------10/12/13------------------------------------------------|

Aj:
e|-----------------------------------------------------------------|
B|-4-4-4-4-4-4-4-4-----------------6-6-6-6-6-6-6-6-6-6-6-6-6-6-6-6-|
G|-3-3-3-3-3-3-3-3-3-3-3-3-3-3-3-3-5-5-5-5-5-5-5-5-5-5-5-5-5-5-5-5-|
D|-1-1-1-1-1-1-1-1-3-3-3-3-3-3-3-3-3-3-3-3-3-3-3-3-3-3-3-3-3-3-3-3-|
A|-1-1-1-1-1-1-1-1-1-1-1-1-1-1-1-1-3-3-3-3-3-3-3-3-3-3-3-3-3-3-3-3-|
D|-1-1-1-1-1-1-1-1-----------------3-3-3-3-3-3-3-3-3-3-3-3-3-3-3-3-|

Aj:
e|-----------------------------------------------------------------|
B|-4-4-4-4-4-4-4-4-----------------6-6-6-6-6-6-6-6-8-8-8-8-8-8-8-8-|
G|-3-3-3-3-3-3-3-3-3-3-3-3-3-3-3-3-5-5-5-5-5-5-5-5-7-7-7-7-7-7-7-7-|
D|-1-1-1-1-1-1-1-1-3-3-3-3-3-3-3-3-3-3-3-3-3-3-3-3-5-5-5-5-5-5-5-5-|
A|-1-1-1-1-1-1-1-1-1-1-1-1-1-1-1-1-3-3-3-3-3-3-3-3-5-5-5-5-5-5-5-5-|
D|-1-1-1-1-1-1-1-1-----------------3-3-3-3-3-3-3-3-5-5-5-5-5-5-5-5-|

Aj:
e|-----------------------------------------------------------------|
B|-4-4-4-4-4-4-4-4-6-6-6-6-6-6-6-6---------------------------------|
G|-3-3-3-3-3-3-3-3-7-7-7-7-7-7-7-7-3-3-3-3-3-3-3-3-2-2-2-2-2-2-2-2-|
D|-1-1-1-1-1-1-1-1-5-5-5-5-5-5-5-5-3-3-3-3-3-3-3-3-3-3-3-3-3-3-3-3-|
A|-1-1-1-1-1-1-1-1-5-5-5-5-5-5-5-5-1-1-1-1-1-1-1-1-0-0-0-0-0-0-0-0-|
D|-1-1-1-1-1-1-1-1-5-5-5-5-5-5-5-5---------------------------------|

Aj:
e|---------------------------------------------------|
B|-4-4-4-4-4-4-4-4-----------------6-6-6-6-6-6-6-6-6-|
G|-3-3-3-3-3-3-3-3-3-3-3-3-3-3-3-3-5-5-5-5-5-5-5-5-5-|
D|-1-1-1-1-1-1-1-1-3-3-3-3-3-3-3-3-3-3-3-3-3-3-3-3-3-|
A|-1-1-1-1-1-1-1-1-1-1-1-1-1-1-1-1-3-3-3-3-3-3-3-3-3-|
D|-1-1-1-1-1-1-1-1-----------------3-3-3-3-3-3-3-3-3-|

(Repeat Chorus twice)

Outro:

Aly: Plucking
e|---------------------------8-6-5-----1---1---1-----------------6-|
B|-----6---------------6---------------------2---------------------|
G|---5-----5-3-2-3---3---3-5---------3---3-------3---------3p2-----|
D|-3-----3---------5---------------1---------------------1-----3---| (x4)
A|-----------------------------------------------------1-----------|
D|-------------------------------------------------0h1-------------|

Aly: * means harmonics
e|-----------1-------------6----------|
B|---4---3-----3-------------6h8------|
G|-----3---3-----3---------------8-7*-|
D|-1---------------3/5----------------|
A|-1-------------------5/6------------|
D|-1----------------------------------|

Aj:
e|-6~---
B|-6~---
G|-7~---
D|------|
A|------|
D|------|

_________________________________________________________________
Chords used: Drop D only

Bb8  - x133xx
F/A  - x035xx
G4   - 5533xx
D#8  - 11134x
F4   - 3335xx
F8   - 33356x
G8   - 55578x
Cm   - x3554x


Intro: Bb8--F/A

Verse 1:
                Bb8                     F/A
I need a little time To see what you're made of
                 G4                                D#8
I know what's on your mind You're heading straight for love
Bb8                                  F4
Let's not rush You're movin' way too fast
                                      G4
We can figure it out We can make this last
	                 D#8
We don't have to be so serious You need to


Chorus:
     G8  D#8      F8       G8
Slow Down I'm not goin' anywhere
     G8  D#8                   Bb8             F/A
Slow Down If you care I need a little time for air
D#8                                             Cm
   If you just let me breathe Maybe I'll stick around
(Break)
If you slow down

(Repeat Intro)

Verse 2:
(Break)          Bb8                  F/A
I wanna a little space A little less attention
                 G4                      D#8
You see it on my face Don't need an explanation
Bb8                                  F4
Let's not rush You're movin' way too fast
                                      G4
We can figure it out We can make this last
	                 D#8
We don't have to be so serious You need to

(Repeat Chorus)


Bridge:
D#8                Bb8             F8
  Keep calling You won't leave me alone (keep calling, you won't leave me alone)
D#8           Bb8              F8            G8      D#8              G8
  Proclaiming love like it's a joke (love is no joke) Leavin' flowers at my door
Bb9               F/A         D#8         Bb8                F8  (Break)
Have enough Don't need anymore Believe in what we have right now Have to slow down
                 F/A
I'm not goin' anywhere


(Repeat Chorus except last line)
(Repeat Chorus)

Outro: Aly's Plucking while singing here

F8--Gm7--D#8

F8                    Gm7                       D#8
   If you just let me breathe Maybe I'll stick around (I'm going anywhere) (x3)
D#5
You'll have to slow down

            
            
Suggest correction
Creating personal tab
Creating personal tab
You can edit any tab online and save it as your Personal.

You can edit, replace or remove any tab part or add personal notes – all changes will be seen only by you.

Personal tabs can be accessed anytime from any device, even offline.
Learn more »
Give kudos to tab author, rate the tab!
1 2 3 4 5
comments
print report bad tab
guest
You may want to rate the tab now too:
select rating
Wanna post a correction for this tab? Suggest correction