Oops, an error
Loading. Please wait.

Something More tab

version 2
version 2

Whole song

1,134 views 1 this week
no commentswrite comment
1 2 3 4 5
1 last vote to show rating
add to favorites
×
Save as Personal and add changes to this tab that will be seen only by you. Learn more ›
×
You can save this tab as Personal to edit and correct it or add notes. All changes will be seen only by you. Learn more »
launch autoscroll
font size
0
reset
how to read this tab
guitar tuner
edit
Autoscroll
slow
fast
+/-
esc
set tempo
stop
Something More - Aly & AJ

Tabbed by: MollyMonday
Note: Listen to the rhythm


AJ Guitar: Capo 8th fret (for live version)**
           Capo 10th fret (for record version)

Intro: 

e---3-3-3-3---3-3-3-3---3-3-3-3---3-3-3-3-----|
B---1-1-1-1---1-1-1-1---1-1-1-1---1-1-1-1-----|
G-------------2-2-2-2-------------------------|
D-------------3-3-3-3---2-2-2-2---------------| (2x)
A---2-2-2-2-------------3-3-3-3---2-2-2-2-----|
E---3-3-3-3-----------------------3-3-3-3-----|


Verse 1:

e---3-3-3-3---3-3-3-3---3-3-3-3---3-3-3-3-----|
B---1-1-1-1---1-1-1-1---1-1-1-1---1-1-1-1-----|
G-------------2-2-2-2-------------------------|
D-------------3-3-3-3---2-2-2-2---------------| (6x)
A---2-2-2-2-------------3-3-3-3---2-2-2-2-----|
E---3-3-3-3-----------------------3-3-3-3-----|


Chorus:
    
    Dm
e---1-1---3-3----3-3-3-3-------|
B---3-3---1-1----1-1-1-1-------|
G---2-2---2-2------------------|
D---------3-3----2-2-2-2-------| (3x)
A----------------3-3-3-3-------|
E------------------------------|

    Dm
e---1-1---3--------|
B---3-3---1--------|
G---2-2---2--------|
D---------3--------| 
A------------------|
E------------------|


Verse 2:

e---3-3-3-3---3-3-3-3---3-3-3-3---3-3-3-3-----|
B---1-1-1-1---1-1-1-1---1-1-1-1---1-1-1-1-----|
G-------------2-2-2-2-------------------------|
D-------------3-3-3-3---2-2-2-2---------------| (8x)
A---2-2-2-2-------------3-3-3-3---2-2-2-2-----|
E---3-3-3-3-----------------------3-3-3-3-----|


Chorus:
    
    Dm
e---1-1---3-3----3-3-3-3-------|
B---3-3---1-1----1-1-1-1-------|
G---2-2---2-2------------------|
D---------3-3----2-2-2-2-------| (3x)
A----------------3-3-3-3-------|
E------------------------------|

    Dm
e---1-1---3--------|
B---3-3---1--------|
G---2-2---2--------|
D---------3--------| 
A------------------|
E------------------|


Bridge:

e---3-3-3-3---3-3-3-3---3-3-3-3---3-3-3-3-----|
B---1-1-1-1---1-1-1-1---1-1-1-1---1-1-1-1-----|
G-------------2-2-2-2-------------------------|
D-------------3-3-3-3---2-2-2-2---------------| (2x)
A---2-2-2-2-------------3-3-3-3---2-2-2-2-----|
E---3-3-3-3-----------------------3-3-3-3-----|


e---3-3---3-3----3-3---3-3-3-3--------|
B---1-1---1-1----1-1---3-3-3-3--------|
G---2-2---2-2-------------------------|
D---2-2---3-3----2-2------------------| (2x)
A----------------3-3---2-2-2-2--------|
E----------------------3-3-3-3--------|

    
Chorus:
    
    Dm
e---1-1---3-3----3-3-3-3-------|
B---3-3---1-1----1-1-1-1-------|
G---2-2---2-2------------------|
D---------3-3----2-2-2-2-------| (5x)
A----------------3-3-3-3-------|
E------------------------------|

    Dm
e---1-1---3--------|
B---3-3---1--------|
G---2-2---2--------|
D---------3--------| 
A------------------|
E------------------|


e---3-3-3-3---3-3-3-3---3-3-3-3---3-3-3-3-----|
B---1-1-1-1---1-1-1-1---1-1-1-1---1-1-1-1-----|
G-------------2-2-2-2-------------------------|
D-------------3-3-3-3---2-2-2-2---------------| (4x)
A---2-2-2-2-------------3-3-3-3---2-2-2-2-----|
E---3-3-3-3-----------------------3-3-3-3-----|



-----------------------------------------------------------------

Aly Guitar: Capo 1st Fret (for live version)**
            Capo 2nd Fret (for record version)

Intro:

e---------0----------0-------------------0-----------|
B-------3----------3-----------3-------3---3---------|
G-----2----------------------0-------2---------------|
D---0-----------2----------0-------0-----------------| (2x)
A-------------3--------------------------------------|
E-----------------------3----------------------------|


Verse 1:

e---------0----------0-------------------0-----------|
B-------3----------3-----------3-------3---3---------|
G-----2----------------------0-------2---------------|
D---0-----------2----------0-------0-----------------| (4x)
A-------------3--------------------------------------|
E-----------------------3----------------------------|


    D     C     G     D 
e---2-2---------3-3---2-2--------|
B---3-3---1-1---3-3---3-3--------|
G---2-2---------------2-2--------|
D---------2-2--------------------| (2x)
A---------3-3---2-2--------------|
E---------------3-3--------------|


Chorus:

e---3-3---3-3---3-3-3-3--------|
B---1-1---1-1---3-3-3-3--------|
G---2-2------------------------|
D---2-2---2-2------------------| (3x)
A---------3-3---2-2-2-2--------|
E---------------3-3-3-3--------|

e---3-3---3--------|
B---1-1---1--------|
G---2-2------------|
D---2-2---2--------| 
A---------3--------|
E------------------|


Verse 2:

    D     C     G     D 
e---2-2---------3-3---2-2--------|
B---3-3---1-1---3-3---3-3--------|
G---2-2---------------2-2--------|
D---------2-2--------------------| (8x)
A---------3-3---2-2--------------|
E---------------3-3--------------|


Chorus:

e---3-3---3-3---3-3-3-3--------|
B---1-1---1-1---3-3-3-3--------|
G---2-2------------------------|
D---2-2---2-2------------------| (3x)
A---------3-3---2-2-2-2--------|
E---------------3-3-3-3--------|

e---3-3---3--------|
B---1-1---1--------|
G---2-2------------|
D---2-2---2--------| 
A---------3--------|
E------------------|


Bridge:

    D     C     G     D 
e---2-2---------3-3---2-2--------|
B---3-3---1-1---3-3---3-3--------|
G---2-2---------------2-2--------|
D---------2-2--------------------| (2x)
A---------3-3---2-2--------------|
E---------------3-3--------------|


    Em    C     G     D 
e---------------3-3---2-2--------|
B---------1-1---3-3---3-3--------|
G---------------------2-2--------|
D---2-2---2-2--------------------| (2x)
A---2-2---3-3---2-2--------------|
E---------------3-3--------------|


Chorus:

e---3----3----3---------|
B---1----1----3---------|
G---2-------------------|
D---2----2--------------| (2x)
A--------3----2---------|
E-------------3---------|

e---3-3---3-3---3-3-3-3--------|
B---1-1---1-1---3-3-3-3--------|
G---2-2------------------------|
D---2-2---2-2------------------| (6x)
A---------3-3---2-2-2-2--------|
E---------------3-3-3-3--------|

e---------0----------0-------------------0-----------|
B-------3----------3-----------3-------3---3---------|
G-----2----------------------0-------2---------------|
D---0-----------2----------0-------0-----------------| (3x)
A-------------3--------------------------------------|
E-----------------------3----------------------------|


e---------0----------0---------------3------------|
B-------3----------3-----------3-----1------------|
G-----2----------------------0--------------------|
D---0-----------2----------0---------2------------| (3x)
A-------------3----------------------3------------|
E-----------------------3-------------------------|



-------------------------------------------------------------------
"Something More" by Aly & AJ


Verse 1: AJ singing

I didn't know what was in store.
When I walked right through the door.
Then I saw you over there, our blue eyes locked in a stare.
I didn't know quite what to say, sometimes words get in the way.

[Chorus]
And I remember the night you said,
"Lets go for a ride" I didn't want the night to end.
Would we be more than friends?
Yet little did I know before,
we would be something more.

Verse 2: Aly singing

In black and white I read the screen, all your lines and in-between.
Then your message on the phone, I save to hear when I'm all alone.
And Now I know just what to say, this doesn't happen everyday.

[Chorus]
And I remember the night you said,
"Lets go for a ride" I didn't want the night to end.
Would we be more than friends?
Yet little did I know before, we would be something more.

Something more, something more. (na na na na,na na na yeah)
We would be something more, something more, something more.

I know we're both young, but we know how we feel.
We know what is false, and we know what is real.

And I remember the night you said "lets go for a ride"...
I didnt want the night to end....

[Chorus]
And I remember the night you said,
"Lets go for a ride" I didn't want the night to end.
Would we be more than friends?
Yet little did I know before, we would be something more.
And I remember the night you said,
"Lets go for a ride" I didn't want the night to end.
Would we be more than friends?
Yet little did I know before, we would be something more.

Something more, something more. (na na na na,na na na yeah)
Something more, something more. (na na na na,na na na yeah)






            
            
Suggest correction
Creating personal tab
Creating personal tab
You can edit any tab online and save it as your Personal.

You can edit, replace or remove any tab part or add personal notes – all changes will be seen only by you.

Personal tabs can be accessed anytime from any device, even offline.
Learn more »
Give kudos to tab author, rate the tab!
1 2 3 4 5
comments
print report bad tab
guest
You may want to rate the tab now too:
select rating
Wanna post a correction for this tab? Suggest correction