Oops, an error
Loading. Please wait.

Speak For Myself tab

version 2
version 2

Whole song

238 views 1 this week
no commentswrite comment
1 2 3 4 5
3 more votes to show rating
add to favorites
×
Save as Personal and add changes to this tab that will be seen only by you. Learn more ›
×
You can save this tab as Personal to edit and correct it or add notes. All changes will be seen only by you. Learn more »
launch autoscroll
font size
0
reset
how to read this tab
guitar tuner
edit
Autoscroll
slow
fast
+/-
esc
set tempo
stop
Difficulty
This is an easier version that is completely correct with the song- I play it all the time

Speak for Myself

tab-
@= repeat
*- mutes
/- slide
strumming-
-=down
+=up

Verse:
e---------------------------------------------------------------|
B---------------------------------------------------------------|
G---------------------------------------------------------------|
D--------12-*-*-12-*-*-12-*-*-12-*-*--8--8---10-*-*-10-*-*-10---|
A--------10-*-*-10-*-*-10-*-*-10-*-*--6--6----8-*-*--8-*-*--8---|
E---------------------------------------------------------------|

e--------------------------------|
B--------------------------------|
G-------------------------------@|
D--------------------------------|
A-------------------10-10-------@|
E-------------6/8-6/-8--8--------|

repeat this section through the verse

Chorus:
e--------------|-------|------|-----|---------|-----|-----|-------|
B--------------|-------|------|-----|---------|-----|-----|-------|
G--------------|-------|------|-----|---------|-----|-----|-------|
D-------8--/10-|-10----|------|-----|--8--/10-|--10-|-----|-------|
A-------6--/-8-|--8----|--8---|-10--|--6--/-8-|---8-|-5---|-8-----|
E--------------|-------|--6---|--8--|---------|-----|-3---|-6-----|
        ---+-+   +----  --+-+- --+-- ---++-+    +---- ---+- -----

e---------------|------|------|-----|-----|-----|-----|
B---------------|------|------|-----|-----|-----|-----|
G---------------|------|------|-----|-----|-----|-----|
D-------8--/10--|-10---|------|-----|-----|-----|--8--|
A-------6--/-8--|--8---|--5---|--3--|-10--|-8---|--6--|
E---------------|------|--3---|--1--|--8--|-6---|-----|
        ---+-+   +----  --+-+- --+-- ----- -----  -


I put the power chords for the chorus above and the rythem is below

Bridge:
e----------------------|-------------------|----------|------------|
B-@--------------------|------------------@|----------|------------|
G----------------------|-------------------|----------|------------|
D----------------------|-----8--8--8--8----|-8--8--10-|-8--8-------|
A-@-----8---8---8---8--|-----5--6--5--6---@|-5--6---8-|-5--6--3----|
E-------5---6---5---6--|-------------------|----------|-------1----|


After the last chorus, play with same rythem:

e--------|-----|----------|-----|-------|------|
B--------|-----|----------|-----|-------|------|
G--------|-----|----------|-----|-------|------|
D----7---|--5--|--8--/10--|-10--|-------|---8--|
A----5---|--3--|--6--/-8--|--8--|----8--|---6--|
E--------|-----|----------|-----|----6--|------|

any questions? I would be happy to help anyone! please email me at krazypup1214@aim.com

~*Jazzy*~

            
            
Suggest correction
Creating personal tab
Creating personal tab
You can edit any tab online and save it as your Personal.

You can edit, replace or remove any tab part or add personal notes – all changes will be seen only by you.

Personal tabs can be accessed anytime from any device, even offline.
Learn more »
Give kudos to tab author, rate the tab!
1 2 3 4 5
comments
print report bad tab
guest
Wanna post a correction for this tab? Suggest correction