Oops, an error
Loading. Please wait.

Gold chords

112 views 1 this week
2 commentsread comments
1 2 3 4 5
x 3
add to favorites
×
Save as Personal and add changes to this tab that will be seen only by you. Learn more ›
×
You can save this tab as Personal to edit and correct it or add notes. All changes will be seen only by you. Learn more »
launch autoscroll
font size
0
reset
transpose
0
reset
display chords
guitar tuner
edit
Autoscroll
slow
fast
+/-
esc
set tempo
stop
Strumming
There is no strumming pattern for this song yet. and get +5 IQ
SONG:   GOLD (COTTON MILL LIVE) 
ARTIST: ALYSSA BONAGURA 
VIDEO:  https://youtu.be/bNLPT2lEQFk
TAB BY: DON CZARSKI
EMAIL:  GUITARZAN7@HOTMAIL.COM


        GOLD (COTTON MILL LIVE)   
           ALYSSA BONAGURA 


CAPO: 4th FRET

INTRO:

GUITAR 1:
G  Em  D  C

G  Em  D  C
   |
GUITAR 2 - NO CAPO

E -0-1-2-0------|-----------------|---------------|
B ---------4-0--|--0-2-4-2-0------|------2--------|
G --------------|------------3-3--|--3-4---4-3-1--|
D --------------|-----------------|---------------|
A --------------|-----------------|---------------|
E --------------|-----------------|---------------|


VERSE:
G
 Sittin' round, passin' round 

This old guitar that daddy gave me
Em
Sharin' laughs and raisin' glasses
 C
Singin with my friends and family
G         Em    D
  Ooooooo-oooo-oooo


VERSE:
G
 Feelin' every time you're near me
Bm             
And I knew it when you kissed me
Em                              C
I found all the riches in the world


CHORUS:
         C
This is gold

I wanna hold
              Em
And never let go
   D
Oh no

      C
Who knows

What tomorrow 
    
Is gonna bring
 G              Em
So right here, right now 
    D            
Is all I care about


VERSE:
  G
Life's about havin' nights like tonight

And days like today that never get old
C            G      
 This is gol-ol-old
  C             
This is gol-ol-old


INSTRUMENTAL:
GUITAR 1:
G  Em  D  C
   |
GUITAR 2 - NO CAPO

E -0-1-2-0------|-----------------|---------------|
B ---------4-0--|--0-2-4-2-0------|------2--------|
G --------------|------------3-3--|--3-4---4-3-1--|
D --------------|-----------------|---------------|
A --------------|-----------------|---------------|
E --------------|-----------------|---------------|


VERSE:
G
I took a walk to the seaside
Bm
Saw the stars shine in your eyes
Em
Felt the water on our skin
     C
And you dared me
    Em
And I jumped in


VERSE:
  G
Shiver'n and holdin' you tight
 C
Lookin' up into that diamond sky
 Em
Found a treasure in the sand 
 C
Right here in my hands


CHORUS:
         C
This is gold

I wanna hold
              Em
And never let go
   D
Oh no

      C
Who knows

What tomorrow 
    
Is gonna bring
 G              Em
So right here, right now 
D         G
Is all I care about


VERSE:
 G
Life's about havin' nights like tonight

And days like today that never get old

C            G      
 This is gol-ol-old
  C             
This is gol-ol-old


BREAK:
 D
This little ring
              C
This little stone
 D                              Am
This little life we'll make our own
D                           C
In this place that we call home


VERSE:
 G
Life's about havin' nights like tonight
                 C
And days like today 
         G   C
This is gold


CHORUS:
         C
This is gold
         C
I wanna hold
     G        Em
And never let go
G  D
Oh no

      C
Who knows
                  Em
What tomorrow is gonna bring
Em
So right here, right now 
D         G
Is all I care about


VERSE:
 G
Life's about havin' nights like tonight

And days like today

That never get old


OUTRO:
C
  This is gold
                G
This is gol-ol-old

GUITAR 2 - NO CAPO

E -0-1-2-0------|-----------------|---------------|
B ---------4-0--|--0-2-4-2-0------|------2--------|
G --------------|------------3-3--|--3-4---4-3-1--|
D --------------|-----------------|---------------|
A --------------|-----------------|---------------|
E --------------|-----------------|---------------|

   Em                 G C
Oh baby this is gold

 G
Every touch

And every kiss
 Em                          Bm   C
Every moment just like thi-i-is


================= NO CAPO ===================


SONG:   GOLD (COTTON MILL LIVE) 
ARTIST: ALYSSA BONAGURA 
VIDEO:  https://youtu.be/bNLPT2lEQFk
TAB BY: DON CZARSKI
EMAIL:  GUITARZAN7@HOTMAIL.COM


        GOLD (COTTON MILL LIVE)   
           ALYSSA BONAGURA 


CAPO: NONE

INTRO:

GUITAR 1:
B  G#m  F#  E

B  G#m  F#  E
    |
GUITAR 2 - NO CAPO

E -0-1-2-0------|-----------------|---------------|
B ---------4-0--|--0-2-4-2-0------|------2--------|
G --------------|------------3-3--|--3-4---4-3-1--|
D --------------|-----------------|---------------|
A --------------|-----------------|---------------|
E --------------|-----------------|---------------|


VERSE:
B
 Sittin' round, passin' round 

This old guitar that daddy gave me
G#m
Sharin' laughs and raisin' glasses
 E
Singin with my friends and family
B         G#m   F#
  Ooooooo-oooo-oooo


VERSE:
B
 Feelin' every time you're near me
D#m 
And I knew it when you kissed me
G#m                             E
I found all the riches in the world


CHORUS:
         E
This is gold

I wanna hold
              G#m
And never let go
   F#
Oh no

      E
Who knows

What tomorrow 
    
Is gonna bring
 B              G#m
So right here, right now 
    F#
Is all I care about


VERSE:
  B
Life's about havin' nights like tonight

And days like today that never get old
E            B
 This is gol-ol-old
  E
This is gol-ol-old


INSTRUMENTAL:
GUITAR 1:
B   G#m  F#   E
     |
GUITAR 2 - NO CAPO

E -0-1-2-0------|-----------------|---------------|
B ---------4-0--|--0-2-4-2-0------|------2--------|
G --------------|------------3-3--|--3-4---4-3-1--|
D --------------|-----------------|---------------|
A --------------|-----------------|---------------|
E --------------|-----------------|---------------|


VERSE:
B
I took a walk to the seaside
D#m
Saw the stars shine in your eyes
G#m
Felt the water on our skin
     E
And you dared me
    G#m
And I jumped in


VERSE:
  B
Shiver'n and holdin' you tight
 E
Lookin' up into that diamond sky
 G#m
Found a treasure in the sand 
 E
Right here in my hands


CHORUS:
         E
This is gold

I wanna hold
              G#m
And never let go
   F#
Oh no

      E
Who knows

What tomorrow 
    
Is gonna bring
 B              G#m
So right here, right now 
F#        B
Is all I care about


VERSE:
 B
Life's about havin' nights like tonight

And days like today that never get old

E            B
 This is gol-ol-old
  E
This is gol-ol-old


BREAK:
 F#
This little ring
              E
This little stone
 F#                             C#m
This little life we'll make our own
F#                          E
In this place that we call home


VERSE:
 B
Life's about havin' nights like tonight
                 E
And days like today 
         B   E
This is gold


CHORUS:
         E
This is gold
         E
I wanna hold
     B        G#m
And never let go
B  F#
Oh no

      E
Who knows
                  G#m
What tomorrow is gonna bring
G#m
So right here, right now 
F#        B
Is all I care about


VERSE:
 B
Life's about havin' nights like tonight

And days like today

That never get old


OUTRO:
E
  This is gold
                B
This is gol-ol-old

GUITAR 2 - NO CAPO

E -0-1-2-0------|-----------------|---------------|
B ---------4-0--|--0-2-4-2-0------|------2--------|
G --------------|------------3-3--|--3-4---4-3-1--|
D --------------|-----------------|---------------|
A --------------|-----------------|---------------|
E --------------|-----------------|---------------|

   G#m                B E
Oh baby this is gold

 B
Every touch

And every kiss
 G#m                         D#m  E
Every moment just like thi-i-is

            
            
Suggest correction
Creating personal tab
Creating personal tab
You can edit any tab online and save it as your Personal.

You can edit, replace or remove any tab part or add personal notes – all changes will be seen only by you.

Personal tabs can be accessed anytime from any device, even offline.
Learn more »
Give kudos to tab author, rate the tab!
1 2 3 4 5
comments
print report bad tab
2 comments total.
0 reply
DON CZARSKI [tm] 28,135 Aug 06, 2016 10:09 AM

NOTE: this tab is for the video listed as she plays differently on different live performances on you tube..

0 reply
guillermopeitto 10,444 Aug 06, 2016 12:14 PM

Beautiful song, great tab!

guest
You may want to rate the tab now too:
select rating
Wanna post a correction for this tab? Suggest correction