Oops, an error
Loading. Please wait.

Taken For A Ride tab

version 2
version 2

Whole song

286 views 1 this week
1 commentread comment
1 2 3 4 5
1 last vote to show rating
add to favorites
×
Save as Personal and add changes to this tab that will be seen only by you. Learn more ›
×
You can save this tab as Personal to edit and correct it or add notes. All changes will be seen only by you. Learn more »
launch autoscroll
font size
0
reset
how to read this tab
guitar tuner
edit
Autoscroll
slow
fast
+/-
esc
set tempo
stop
This is pretty simple, and it's a great song.  If you haven't heard it, look it up 
on youtube.  You'll like it.  I don't have the solo, but I'm working on it.

INTRO/VERSE 
Eb|--------------------------|
Bb|--------------------------|
Gb|--------------------------|
Db|-2-2--5-5-5--7-7-7--9-9-9-|
Ab|-2-2--5-5-5--7-7-7--9-9-9-|
Eb|-0-0--3-3-3--5-5-5--7-7-7-|

PRE CHORUS
Eb|-------------------------------|
Bb|-------------------------------|
Gb|-------------------------------|
Db|-9-9-9-------------------------|
Ab|-7-7-7-6-5-5-5-----------------|
Eb|---------------7-5-5-5-6-7-7-7-|

CHORUS
Eb|---------------------------------|
Bb|---------------------------------|
Gb|---------------------------------|
Db|-2-2-2-2-5-5-5-5-7-7-7-7-9-9-9-9-|
Ab|-2-2-2-2-5-5-5-5-7-7-7-7-9-9-9-9-|
Eb|-0-0-0-0-3-3-3-3-5-5-5-5-7-7-7-7-|

SWEET BRIDGE
Eb|--------------------------------------------------------|
Bb|--------------------------------------------------------|
Gb|--------------------------------------------------------|
Db|-7-7-7-7-7--5--2-2-2-2-2---9-9-9-9-9--7--10-10-10-10-10-|
Ab|-7-7-7-7-7--5--2-2-2-2-2---9-9-9-9-9--7--10-10-10-10-10-|
Eb|-5-5-5-5-5--3--0-0-0-0-0---7-7-7-7-7--5--8--8--8--8--8--|
    Ta~       ken Me~        For~        A Ride~

            
            
Suggest correction
Creating personal tab
Creating personal tab
You can edit any tab online and save it as your Personal.

You can edit, replace or remove any tab part or add personal notes – all changes will be seen only by you.

Personal tabs can be accessed anytime from any device, even offline.
Learn more »
Give kudos to tab author, rate the tab!
1 2 3 4 5
comments
print report bad tab
1 comment total.
0 reply
Kraziekhat 64,745 Aug 02, 2009 06:34 PM

Even though I didn't know the song I gave it a listen on Youtube and
the tab sounds on with it. KK.

guest
You may want to rate the tab now too:
select rating
Wanna post a correction for this tab? Suggest correction