Oops, an error
Loading. Please wait.

Heartache Tab

version 2
version 2

Intro

22 views 1 this week
no commentswrite comment
1 2 3 4 5
3 more votes to show rating
add to favorites
launch autoscroll
font size
0
reset
how to read this tab
guitar tuner
Autoscroll
slow
fast
+/-
esc
set tempo
stop
Help us to improve Ultimate-Guitar.com Take our survey!
×
Author
============================
 Amanda Jenssen - Heartache
============================
No Capo

[Intro]

e|--------|-----2--------0-----2-----|-----2--------0--2--------|
B|--------|--------3--------3-----3--|--------3-----------3-----|
G|--------|-----------4--------------|-----------4--------------|
D|--------|--------------------------|--4-----------------------|
A|-----2--|--2-----------------------|--------------------------|
E|--2-----|--------------------------|--------------------------|

e|-----2--------0-----2-----|-----2--------0-----------|
B|--------3--------3-----3--|--------3--------3--------|
G|-----------4--------------|-----------4--------4-----|
D|--------------------------|--------------------------|
A|--2-----------------------|--2-----------------------|
E|--------------------------|--------------------------|

e|--2--------2--------2-----|--2--0-----2--0-----2-----|
B|-----3--------3-----------|--------0--------0--------|
G|--------4--------4--------|--------------------------|
D|--------------------------|--4--------4--------4-----|
A|--2--------2--------2-----|--------------------------|
E|--------------------------|--------------------------|

e|--2--------2--------2-----|--0-----------------------|
B|-----2--------2-----------|--------------------------|
G|--------3--------3--------|--------------------------|
D|--------------------------|--------------------------|
A|--4--------4--------4-----|--4-----------------------|
E|--------------------------|--------------------------|
Suggest correction
Give kudos to tab author, rate the tab!
1 2 3 4 5
comments
print report bad tab
guest
You may want to rate the tab now too:
select rating
Wanna post a correction for this tab? Suggest correction