Oops, an error
Loading. Please wait.

Follow Me bass

7 views 1 this week
no commentswrite comment
1 2 3 4 5
2 more votes to show rating
add to favorites
×
Save as Personal and add changes to this tab that will be seen only by you. Learn more ›
×
You can save this tab as Personal to edit and correct it or add notes. All changes will be seen only by you. Learn more »
launch autoscroll
font size
0
reset
guitar tuner
edit
Autoscroll
slow
fast
+/-
esc
set tempo
stop
Artist: Amanda Lear
Song: Follow Me
Tuning - Standard
tabbed by electricbunny

[Intro]                                                             
G|--------------------------------|--------------------------------|
D|--------3---------------3-------|--------3---------------3-------|
A|--------------------------------|--------------------------------|(x2)
E|1---1-------1---1---1-------1---|1---1-------1---1---1-------1---|
 
[Verse]                                                             
G|--------------------------------|--------------------------------|
D|--------3---------------3-------|--------3---------------3-------|
A|--------------------------------|--------------------------------|(x3)
E|1---1-------1---1---1-------1---|1---1-------1---1---1-------1---|
 
[Chorus]                                                            
G|--------5---------------5-------|--------5---------------5-------|
D|--------------------------------|--------------------------------|
A|3---3-------3---3---3-------3---|3---3-------3---3---3-------3---|(x2)
E|--------------------------------|--------------------------------|

G|--------3---------------3-------|--------3---------------3-------|
D|--------------------------------|--------------------------------|
A|1---1-------1---1---1-------1---|1---1-------1---1---1-------1---|(x2)
E|--------------------------------|--------------------------------|

G|--------------------------------|--------------------------------|
D|--------3---------------3-------|--------3---------------3-------|
A|--------------------------------|--------------------------------|
E|1---1-------1---1---1-------1---|1---1-------1---1---1-------1---|

[Verse]                                                             
G|--------------------------------|--------------------------------|
D|--------3---------------3-------|--------3---------------3-------|
A|--------------------------------|--------------------------------|(x3)
E|1---1-------1---1---1-------1---|1---1-------1---1---1-------1---|
 
[Chorus]                                                            
G|--------5---------------5-------|--------5---------------5-------|
D|--------------------------------|--------------------------------|
A|3---3-------3---3---3-------3---|3---3-------3---3---3-------3---|(x2)
E|--------------------------------|--------------------------------|

G|--------3---------------3-------|--------3---------------3-------|
D|--------------------------------|--------------------------------|
A|1---1-------1---1---1-------1---|1---1-------1---1---1-------1---|(x2)
E|--------------------------------|--------------------------------|

G|--------------------------------|--------------------------------|
D|--------3---------------3-------|--------3---------------3-------|
A|--------------------------------|--------------------------------|(x2)
E|1---1-------1---1---1-------1---|1---1-------1---1---1-------1---|
 
[Verse]                                                             
G|--------------------------------|--------------------------------|
D|--------3---------------3-------|--------3---------------3-------|
A|--------------------------------|--------------------------------|(x3)
E|1---1-------1---1---1-------1---|1---1-------1---1---1-------1---|
 
[Chorus]                                                             
G|--------3---------------3-------|--------3---------------3-------|
D|--------------------------------|--------------------------------|
A|1---1-------1---1---1-------1---|1---1-------1---1---1-------1---|(x2)
E|--------------------------------|--------------------------------|

G|--------5---------------5-------|--------5---------------5-------|
D|--------------------------------|--------------------------------|
A|3---3-------3---3---3-------3---|3---3-------3---3---3-------3---|(x2)
E|--------------------------------|--------------------------------|
 
G|--------------------------------|--------------------------------|
D|--------3---------------3-------|--------3---------------3-------|
A|--------------------------------|--------------------------------|(x2)
E|1---1-------1---1---1-------1---|1---1-------1---1---1-------1---|
 
[Verse]                                                             
G|--------------------------------|--------------------------------|
D|--------3---------------3-------|--------3---------------3-------|
A|--------------------------------|--------------------------------|X6
E|1---1-------1---1---1-------1---|1---1-------1---1---1-------1---|

[Chorus]                                                            
G|--------5---------------5-------|--------5---------------5-------|
D|--------------------------------|--------------------------------|
A|3---3-------3---3---3-------3---|3---3-------3---3---3-------3---|(x2)
E|--------------------------------|--------------------------------|

G|--------3---------------3-------|--------3---------------3-------|
D|--------------------------------|--------------------------------|
A|1---1-------1---1---1-------1---|1---1-------1---1---1-------1---|(x2)
E|--------------------------------|--------------------------------|

G|--------------------------------|--------------------------------|
D|--------3---------------3-------|--------3---------------3-------|
A|--------------------------------|--------------------------------|(x2)
E|1---1-------1---1---1-------1---|1---1-------1---1---1-------1---|

[Verse]                                                             
G|--------------------------------|--------------------------------|
D|--------3---------------3-------|--------3---------------3-------|
A|--------------------------------|--------------------------------|X5
E|1---1-------1---1---1-------1---|1---1-------1---1---1-------1---|

[Chorus]                                                            
G|--------5---------------5-------|--------5---------------5-------|
D|--------------------------------|--------------------------------|
A|3---3-------3---3---3-------3---|3---3-------3---3---3-------3---|(x2)
E|--------------------------------|--------------------------------|

G|--------------------------------|--------------------------------|
D|--------3---------------3-------|--------3---------------3-------|
A|--------------------------------|--------------------------------|(x2)
E|1---1-------1---1---1-------1---|1---1-------1---1---1-------1---|

G|--------------------------------|--------------------------------|
D|--------3---------------3-------|--------3---------------3-------|
A|--------------------------------|--------------------------------|
E|1---1-------1---1---1-------1---|1---1-------1---1---1-------1---|
 
[Verse]                                                             
G|--------------------------------|--------------------------------|
D|--------3---------------3-------|--------3---------------3-------|
A|--------------------------------|--------------------------------|(x3)
E|1---1-------1---1---1-------1---|1---1-------1---1---1-------1---|

[Chorus]                                                            
G|--------5---------------5-------|--------5---------------5-------|
D|--------------------------------|--------------------------------|
A|3---3-------3---3---3-------3---|3---3-------3---3---3-------3---|(x2)
E|--------------------------------|--------------------------------|

G|--------3---------------3-------|--------3---------------3-------|
D|--------------------------------|--------------------------------|
A|1---1-------1---1---1-------1---|1---1-------1---1---1-------1---|(x2)
E|--------------------------------|--------------------------------|
 
G|--------------------------------|--------------------------------|
D|--------3---------------3-------|--------3---------------3-------|
A|--------------------------------|--------------------------------|(x2)
E|1---1-------1---1---1-------1---|1---1-------1---1---1-------1---|

[Outro]                                                             
G|--------5---------------5-------|--------5---------------5-------|
D|--------------------------------|--------------------------------|
A|3---3-------3---3---3-------3---|3---3-------3---3---3-------3---|(x2)
E|--------------------------------|--------------------------------|

G|--------3---------------3-------|--------3---------------3-------|
D|--------------------------------|--------------------------------|
A|1---1-------1---1---1-------1---|1---1-------1---1---1-------1---|(x2)
E|--------------------------------|--------------------------------|
 
G|--------3---------------3-------|--------3---------------3-------|
D|--------------------------------|--------------------------------|
A|1---1-------1---1---1-------1---|1---1-------1---1---1-------1---|(x2)
E|--------------------------------|--------------------------------|

            
            
Suggest correction
Creating personal tab
Creating personal tab
You can edit any tab online and save it as your Personal.

You can edit, replace or remove any tab part or add personal notes – all changes will be seen only by you.

Personal tabs can be accessed anytime from any device, even offline.
Learn more »
Give kudos to tab author, rate the tab!
1 2 3 4 5
comments
print report bad tab
guest
You may want to rate the tab now too:
select rating
Wanna post a correction for this tab? Suggest correction