Oops, an error
Loading. Please wait.

El Universo Sobre Mi Tab

version 1
version 1

Whole song

Interactive

6,906 views 6 this week
no commentswrite comment
1 2 3 4 5
excellent!
x 6
add to favorites
launch autoscroll
font size
0
reset
how to read this tab
guitar tuner
Autoscroll
slow
fast
+/-
esc
set tempo
stop
Help us to improve Ultimate-Guitar.com Take our survey!
×
Author
Lead Guitar Tab
~ means let ring
The chords on top indicate when to play the riffs relative to the chords.


Synth Melody in the Intro and Verse

e--------------------------------------|
B--7---7---8---8---10---10---8---8-----|
G----7---7---7---7----7----7---7---7---| x2
D--------------------------------------|
A--------------------------------------|
E--------------------------------------|

Chorus

   Bm       G        D       A
e-----------------------------------------|
B------3--------3--------3---2---3-5------|
G----4---4----0---0----2---2---2----------| x4
D--------------------0--------------------|
A--2--------------------------------------|
E-----------3-----------------------------|

Harmonica Solo

   Bm   G    D  A    Bm   G    D  A
e--14~--15~--14~--12-14~--15~--14~-----|
B--------------------------------------|
G--------------------------------------|
D--------------------------------------|
A--------------------------------------|
E--------------------------------------|

   D    G    Bm       A
e--14~--19~--17-15-14-12~-14-12-10-12~--10-9-10~--|
B-------------------------------------------------|
G-------------------------------------------------|
D-------------------------------------------------|
A-------------------------------------------------|
E-------------------------------------------------|

Guitar During Harmonica

Chorus x2

   D        G        Bm       A
e------------------------------------------------------------------|
B------3--------3--------3--------2---3---2---3---2---3---2--------|
G----2---2----0---0----4---4----2---2---2---2---2---2---2---2------|
D--0--------------------------0------------------------------------|
A--------------------2---------------------------------------------|
E-----------3------------------------------------------------------|

Chords (Which are not mine, I got them off of http://www.e-chords.com/guitartab.asp?idmusica=64415
Credit goes to original author not me.)

Intro: D  A

D                 Cadd9                     Bm
Sólo queda un vela encendida en medio de la tarta
                 A
Y se quiere consumir
D                       Cadd9          Bm
Ya se van los invitados, tú y yo nos miramos
                     A
Sin saber bien que decir
G                        Bm
Nada que descubra lo que siento
                    D                     A
Que este día fue perfecto y parezco tan feliz
Em                       Bm                        A
Nada como que hace mucho tiempo que me cuesta sonreír

       Bm               G              D         A           Bm
Quiero vivir, quiero gritar, quiero sentir el universo sobre mí
         G            D               A
Quiero correr en libertad quiero encontrar mi sitio

D                    Cadd9             Bm
Una broma del destino una melodía acelerada
                   A
En una canción que nunca acaba
D                      Cadd9                       Bm
Ya he tenido suficiente, necesito a alguien que comprenda
                        A
Que estoy sola en medio de un montón de gente
D                 G   A
¿Qué puedo hacer?

       Bm               G              D         A           Bm
Quiero vivir, quiero gritar, quiero sentir el universo sobre mí
         G            D              A            Bm
Quiero correr en libertad, quiero llorar de felicidad
       G               D         A           Bm
Quiero vivir quiero sentir el universo sobre mí
        G              D               A
Como un náufrago en el mar quiero encontrar mi sitio
Sólo encontrar mi sitio

Bm  G   D  A  Bm  G   D  A  D  G   Bm  A

D                       Cadd9
Todos los juguetes rotos, todos los amantes locos
Bm                      A
Todos los zapatos de charol
G                      Bm
Todas las casitas de muñecas
                D                         A
Donde celebrara fiestas donde sólo estaba yo
Em                     Bm                   A
Vuelve el espíritu olvidado del verano del amor

       Bm               G              D         A           Bm
Quiero vivir, quiero gritar, quiero sentir el universo sobre mí
         G            D              A            Bm
Quiero correr en libertad, quiero llorar de felicidad
       G               D         A           Bm
Quiero vivir quiero sentir el universo sobre mí
        G              D               A
Como un náufrago en el mar quiero encontrar mi sitio
Bm        G            D  A
Sólo encontrar mi sitio

       Bm               G              D         A           Bm
Quiero vivir, quiero gritar, quiero sentir el universo sobre mí
         G            D              A            Bm
Quiero correr en libertad, quiero llorar de felicidad
       G               D         A           Bm
Quiero vivir quiero sentir el universo sobre mí
        G              D               A
Como un náufrago en el mar quiero encontrar
Bm   G     D  A
  Mi sitio

Bm  G   D  A  ...

D
Solo queda una vela

Cadd9                    Bm
Encendida en medio de la tarta
                D
Y se quiere consumir

I don't speak Spanish so any questions to me should be in English.

Please join the campaign to bring the glorious band Amaral to New York City!

http://amaralnyc.webs.com/
Suggest correction
comments
print report bad tab
guest
You may want to rate the tab now too:
select rating
Wanna post a correction for this tab? Suggest correction