Oops, an error
Loading. Please wait.

For You And Me Tab

609 views 1 this week
no commentswrite comment
1 2 3 4 5
please rate
add to favorites
launch autoscroll
font size
0
reset
how to read this tab
guitar tuner
Tab Pro tools
  • play this tab
  • loop segment
  • change instrument
  • show fretboard
  • metronome
×
Best way to learn
"For You And Me"
Autoscroll
slow
fast
+/-
esc
set tempo
stop
Tuning
D# G# C# F# A# D#
AMASIC - FOR YOU AND ME
Tabbed by Jubito18

had to tab this great song as it's really easy & fun to play
I know it's not 100% correct but it's pretty accurate. Have fun playing ;) 
Tuning: Half Step Down                                                   

INTRO:                                               
clean                                                <
|-------------------------------------|              |
|-------6-------6-------3-------5-----|              |
|--------7-----7-7-----3-3-----5-5----|              |
|------7--7---7---7-------3---5---5---| 3x           |
|-----5------5--------1------3--------|              |
|-------------------------------------|              |
                                                     |
|--------1--------1-------------------|              |
|---------1--------1--------3---------|              |
|------3---3----3---3-----5--5--5-----|              |
|-----3-3---3--3-3---3---5-5--5-------|              |
|----1--------1---------3------3------|              |
|-------------------------------------|              |
                                                     |
CHOURS:                                              |   2x
Distorted / overdrive                                |  
|----------------------------------------|           |
|----------------------------------------|           |
|----7-7-7-7-----------------------------|           |   
|----77777777>-101010101010-1010101010---|           |
|----55555555>-8-8-8-8-8-8--1010101010---|           |
|---------------------------8-8-8-8-8----|           |
Living the same way everyday.....                    |
|---------------------------------------------|      |
|---------------------------------------------|      |
|----7-7-7-7----------------------------------|      |
|----77777777>-101010101010-121212121212--7---|      |
|----55555555>-8-8-8-8-8-8--101010101010--5---|      |
|---------------------------------------------|      <


|-------------------------------|
|-------------------------------|
|----7-7-7--7-7-7---------------| 
|----7-7-7--7-7-7--33333-5------|
|----5-5-5--5-5-5--33333-5------|
|------------------11100-3------|
No one's there we don't care..

|-------------------------------|
|-------------------------------|
|----7-7-7--7-7-7---------------| 
|----7-7-7--7-7-7--3-33--5------|
|----5-5-5--5-5-5--3-33--5------|
|------------------1-10--3------|

BRIDGE* Play D with Tremolo effect /// 

|----------------------------------|
|-----------------------(----55)---|
|----77----7------------(333-55)---| 
|---077-10-7---88-12-10-(333-55)---| 4x 
|---055-8--5--088-12-10—(111-33)---|
|-------------066-10-8—------------|

|---------------------------------------------|
|---------------------------------------------|
|----7-7-7-7----------------------------------| 
|----77777777>-101010101010-121212121212------|
|----55555555>-8-8-8-8-8-8--101010101010------|
|---------------------------------------------|
Living the same way everyday...


OUTRO
wanted it to be readable as possible so just repeat some sgments more times  
|-----------------------------------------------------------------|-----|
|-----------------------------------------------------------------|-----|
|:--17-14--14-17-14--14-17-14-----19-14--14-19-14-14--15-14------:|--7--| 
|:-------15--------15--------15-14-----15--------15--------15-14-:|--5--| 
|-----------------------------------------------------------------|--5--|
|-----------------------------------------------------------------|-----|
You & me.....




(CHORUS – 2nd guitar)

(----5555555--9-9--9-9------------------------)
(----6565656--1010-1010--11-108---------------)
(----5555555-------------10-9-7---------------) 
(---------------------------------------------)
(---------------------------------------------)
(---------------------------------------------)


END ;)
comments
We did not receive enough feedback on this tab! Please rate:
print report bad tab
1 2 3 4 5
I want to post or [tab]
guest
You may want to rate the tab now too:
select rating
Please do not post tabs as comments. Select "correction" instead!