Oops, an error
Loading. Please wait.

Injustice Tab

1,219 views 1 this week
no commentswrite comment
1 2 3 4 5
excellent!
x 3
add to favorites
launch autoscroll
font size
0
reset
how to read this tab
guitar tuner
Autoscroll
slow
fast
+/-
esc
set tempo
stop
Help us to improve Ultimate-Guitar.com Take our survey!
×
Author
Difficulty
Tabbers playing skills
soccersw2 130
intermediate
intermediate
2nd tab for this guy that I've made. Probably the most popular or most well-known song 
him. It is pretty accurate. Have fun with it!....

Tuning: All strings half step down
____________________________________________________________________________

INTRO: For the intro the harmonics are messed up on my guitar so I put the notes on the 
and put what I think the harmonic part is in paranthesis (). It should be right, but I 
the notes just in case.

(Guitar 1)
|------10---9------|
|:-------------10-:|
|------------------|
|-------5----------| Play 16x
|:----------4---5):|
|-(x-x-------------|
|
|(Guitar 2)
|----------------------------|    |----------------------------|
|:--------------------------:|P   |----------------------------|
|----------------------------|L 2 |----------------------------|
|-9-9-9----5-5-5----7-7-7----|A X |-9-9-9----5-5-5----4-4-4----|
|:9-9-9----5-5-5----7-7-7---:|Y   |-9-9-9----5-5-5----4-4-4----|
|-7-7-7----3-3-3----5-5-5----|    |-7-7-7----3-3-3----2-2-2----|
____________________________________________________________________________

PRE-VERSE:

(Guitar 1)
|------------------------------------------------------|
|------------------------------------------------------|
|---------------------------------------------7--6-----|
|-9--9-----9--------------9--9-----9-10-10----7--6--7--|
|-9--9-----9-10-10-----10-9--9-----9-10-10----5--4--7--|
|-7--7-----7-7--7------7--7--7-----7-7--7-----------5--|
|
|(Guitar 2)
|------------------------------------------------------|
|------------------------------------------------------|
|---------------------------------------------9--7--6--|
|---------------------------------------------x--x--x--|
|---------------------------------------------7--5--4--|
|------------------------------------------------------|
____________________________________________________________________________

VERSE:

(Guitar 1)
|------------------------------------------------------|
|:----------------------------------------------------:|
|------------------------------------------------------|
|-9--9-----9---------------5---4-----------------------| Play 2x
|:9--9-----9-10-10----\------------4h5-----4---5---4p0:|
|-7--7-----7-7--7-----\3-3---3---3-----2-2---2---2-----|
____________________________________________________________________________

(Guitar 1)
pm_______ pm______  pm___      pm_______  pm___________
|---------------------------------------------------------------|
|:-------------------------------------------------------------:|
|---------------------------------------------------------------|
|-9-9-9-9-9--9-9-9-9--9-9-9--9-9-5-5-5-5-5--5-5-7-7-7-7-7--7-7--| Play 2x
|-9-9-9-9-9--9-9-9-9--9-9-9--9-9-5-5-5-5-5--5-5-7-7-7-7-7--7-7-:|
|:7-7-7-7-7--7-7-7-7--7-7-7--7-7-3-3-3-3-3--3-3-5-5-5-5-5--5-5--|
____________________________________________________________________________

(Guitar 1)
pm_______ pm______  pm___      pm_______  pm__________
|---------------------------------------------------------------|
|:-------------------------------------------------------------:|
|---------------------------------------------------------------|
|-9-9-9-9-9--9-9-9-9-9----------5-5-5-5-5--5-5-7-7-7-7----------|Play 2x
|-9-9-9-9-9--9-9-9-9-9-10-9-----5-5-5-5-5--5-5-7-7-7-7-9--7----:|
|:7-7-7-7-7--7-7-7-7-7-7--7-----3-3-3-3-3--3-3-5-5-5-5----------|
____________________________________________________________________________

(Guitar 1)
|------------------------------------------------|
|------------------------------------------------|
|------------------------------------------------|
|-4----4--4--4----4-4-4-4-4----------x-x-x-x-x-x-|
|-4----4--4--4----4-4-4-4-4----------x-x-x-x-x-x-|
|-2----2--2--2----2-2-2-2-2----------x-x-x-x-x-x-|
____________________________________________________________________________

CHORUS:

(Guitar 1)
|--------------------------------------------------------------------|
|--------------------------------------------------------------------|
|-4--4--4-4-4-4-5-5-5-56-6-6-6-12-12-12-12-12-12-12-12-12-10101010---|
|-x--x--x-x-x-x-x-x-x-xx-x-x-x-x--x--x--x--x--x--x--x--x--x-x-x-x----|
|-2--2--2-2-2-2-4-4-4-45-5-5-5-10-10-10-10-10-10-10-10-10-9-9-9-9----|
|--------------------------------------------------------------------|
|
|(Guitar 2)
|---------------------------------------------------------------------|
|---------------------------------------------------------------------|
|-----------------------------12--12--12-12-12-12-12--12--12-12-12-12-|
|-9--9--9-9-9-9-9--9--9-9-9-9-12--12--12-12-12-12-12--12--12-12-12-12-|
|-9--9--9-9-9-9-9--9--9-9-9-9-10--10--10-10-10-10-10--10--10-10-10-10-|
|-7--7--7-7-7-7-7--7--7-7-7-7-----------------------------------------|
____________________________________________________________________________

(Guitar 1)
|-------------------------------------------------------|
|-------------------------------------------------------|
|-7-7--7-7-7-6-7-7-7-6-7-7-7-9-9--9-9-9-7-7-7-7-6-6-6-6-|
|-x-x--x-x-x-x-x-x-x-x-x-x-x-x-x--x-x-x-x-x-x-x-x-x-x-x-|
|-5-5--5-5-5-4/5-5-5-4/5-5-5-7-7--7-7-7-5-5-5-5-4-4-4-4-|
|-------------------------------------------------------|
|
|(Guitar 2)
|-------------------------------------------------------|
|-------------------------------------------------------|
|-7-7--7-7-7-7-7-7-7-7-7-7-7----------------------------|
|-7-7--7-7-7-7-7-7-7-7-7-7-7-4-4--4-4-4-4-4-4-4-4-4-4-4-|
|-5-5--5-5-5-5-5-5-5-5-5-5-5-4-4--4-4-4-4-4-4-4-4-4-4-4-|
|----------------------------2-2--2-2-2-2-2-2-2-2-2-2-2-|
____________________________________________________________________________

PRE-BRIDGE

(Guitar 1)
|---------------------------------------|
|---------------------------------------|
|---------------------------------------|
|-9-------------------------------------|
|-9-------------------------------------|
|-7-------------------------------------|
|
|(Guitar 2)
|---------------------------------------|
|---------------------------------------|
|-------------------------(5------5-----|
|----------------------------4-5----4-5)|
|---------------------------------------|
|---------------------------------------|
____________________________________________________________________________

BRIDGE

(Guitar 1) All PM
|-------------------------------------------------|
|-------------------------------------------------|
|-------------------------------------------------|
|-------------------------------------------------|
|-5-5-5-5-5-5-5-5-9-9-9-9-9-9-9-9-7-7-7-7-7-7-7-7-|
|-3-3-3-3-3-3-3-3-7-7-7-7-7-7-7-7-5-5-5-5-5-5-5-5-|
|                                                       REPEAT 6x
|(Guitar 2)
|-------------------------------------------------|
|-------------------------------------------------|
|(5--------5--------------------------------------|
|----4--5-----4--5)-------------------------------|
|-------------------------------------------------|
|-------------------------------------------------|
____________________________________________________________________________

(Guitar 1)
|--------------|
|--------------|
|--------------|
|-7--7--7--7--7|
|-7--7--7--7--7|
|-5--5--5--5--5|
____________________________________________________________________________

SOLO
~~~~~~~~~~~~~~~~~~~~~~~~~~~~~~~~~~~~~~~~~~~~~~~~~~~~~~~~~~~~~~~~~~~~~~~~~~~
(Guitar 2)
|-------------------------------------------------|
|-------------------------------------------------|
|-------------------------------------------------| REPEAT UNTIL THE END
|-5-5-5-5-5-5-5-5-9-9-9-9-9-9-9-9-7-7-7-7-7-7-7-7-| OF THE SOLO
|-5-5-5-5-5-5-5-5-9-9-9-9-9-9-9-9-7-7-7-7-7-7-7-7-|
|-3-3-3-3-3-3-3-3-7-7-7-7-7-7-7-7-5-5-5-5-5-5-5-5-|
~~~~~~~~~~~~~~~~~~~~~~~~~~~~~~~~~~~~~~~~~~~~~~~~~~~~~~~~~~~~~~~~~~~~~~~~~~~~

(Guitar 1)
|----------------------------------------------------------------|
|----------------------------------------------------------------|
|-9b11r9b11r9b11r9-p7--9b11r9b11r9b11r9-p7--9b11r9-7-6-7-9-7-6-7-|
|----------------------------------------------------------------|
|----------------------------------------------------------------|
|----------------------------------------------------------------|
____________________________________________________________________________
(Guitar 1) (Every 3 notes is a triplet)
|-------------------------------------------------------------------------|
|-------------------------------------------------------------------------|
|-14-14-14-12-12-12-11-11-11----------12-12-12-11-11-11-------------------|
|----------------------------14-14-14-------------------14-14-14-12-12-12-|
|-------------------------------------------------------------------------|
|-------------------------------------------------------------------------|
____________________________________________________________________________
(Guitar 1)
|-------------------------------------------------------------17----|
|-------------------------/15---14-15-17-15-14-15-17-15-14-15----15-|
|------------14-----------------------------------------------------|
|-11---11-12----12-11-12--------------------------------------------|
|-------------------------------------------------------------------|
|-------------------------------------------------------------------|
____________________________________________________________________________
(Guitar 1)
|--------------------------------------------------------------------------|
|-17-15-14-15-17-15-14----14-15-14----14-----14-15-17-15--14-15-17-17b19---|
|----------------------16----------16-----16-------------------------------|
|--------------------------------------------------------------------------|
|--------------------------------------------------------------------------|
|--------------------------------------------------------------------------|
____________________________________________________________________________

ORDER:
Intro
Pre-Verse
Verse
Chorus
Intro (Half)
Verse
Chorus
Pre-Bridge
Bridge
Solo
Chorus

Thats it! Hope you like it! Comment and rate!
Suggest correction new What's this?
You can suggest a correction to this tab. Community and Mods will review your correction and vote to approve or reject it.
comments
We did not receive enough feedback on this tab! Please rate:
print report bad tab
1 2 3 4 5
guest
You may want to rate the tab now too:
select rating
Please do not post tabs as comments. Select "correction" instead!