Oops, an error
Loading. Please wait.

Jingle Bells Tab

version 1
version 1

Whole song

Interactive

17,089 views 1 this week
no commentswrite comment
1 2 3 4 5
excellent!
x 5
add to favorites
launch autoscroll
font size
0
reset
how to read this tab
guitar tuner
Autoscroll
slow
fast
+/-
esc
set tempo
stop
Help us to improve Ultimate-Guitar.com Take our survey!
×
Contributor
Difficulty
intermediate
Hey this is my first tab. If there are any problems please email me at 
masterbasou12345@hotmail.com

You can also watch my jingle bells cover on youtube by Brandoninio. Heres the 
link: http://www.youtube.com/watch?v=yJoHWhcV_YI

Also check out Amasic's website! http://www.amasic.tk/



Standard Tuning


Intro (Half muted and get slower towards the end.)
e|--------------------------------------------------------|
B|-10--10--9--9--10--10--9--9--10--10--9--9--10--10--9--9-|
G|--------------------------------------------------------|
D|--------------------------------------------------------|
A|--------------------------------------------------------|
E|--------------------------------------------------------|
 |
e|-----------------------------------------------|
B|-10--10--9--9--10--10--9--9--10--10--9--9--10~-|
G|-----------------------------------------------|
D|-----------------------------------------------|
A|-----------------------------------------------|
E|-----------------------------------------------|


Verse (x2)
e|-------------------------------------------------------------------|
B|-------------------------------------------------------------------|
G|-------------------7--7-777-777-777--4--4-444------------9-9-9-9---|
D|-7--7-777-777-777--7--7-777-777-777--4--4-444--2--2-222--9-9-9-9-7-|
A|-7--7-777-777-777--5--5-555-555-555--2--2-222--2--2-222--7-7-7-7-7-|
E|-5--5-555-555-555------------------------------0--0-000----------5-|
P.M     xx  xx  xx        xx  xx  xx        xx        xx


Chorus (x2 and on second repeat, add another A chord)
e|--------------------------------------------------------------------|---|
B|--------------------------------------------------------------------|---|
G|----------------------------------7777777777777777-9999999999999999-|---|
D|-77777777777777777777777777777777-7777777777777777-9999999999999999-|-7-|
A|-77777777777777777777777777777777-5555555555555555-7777777777777777-|-7-|
E|-55555555555555555555555555555555-----------------------------------|-5-|


2nd Intro (faster than the first one and those are 10's not 1's and 0's)
e|------------------------------------------------------------|
B|-1010-99-1010-99-1010-99-1010-99-1010-99-1010-99-1010-99-10-|
G|------------------------------------------------------------|
D|------------------------------------------------------------|
A|------------------------------------------------------------|
E|------------------------------------------------------------|


Verse (x2)
e|-------------------------------------------------------------------|
B|-------------------------------------------------------------------|
G|-------------------7--7-777-777-777--4--4-444------------9-9-9-9---|
D|-7--7-777-777-777--7--7-777-777-777--4--4-444--2--2-222--9-9-9-9-7-|
A|-7--7-777-777-777--5--5-555-555-555--2--2-222--2--2-222--7-7-7-7-7-|
E|-5--5-555-555-555------------------------------0--0-000----------5-|
P.M     xx  xx  xx        xx  xx  xx        xx        xx


Chorus (x2 and on second repeat, add another A chord)
e|--------------------------------------------------------------------|---|
B|--------------------------------------------------------------------|---|
G|----------------------------------7777777777777777-9999999999999999-|---|
D|-77777777777777777777777777777777-7777777777777777-9999999999999999-|-7-|
A|-77777777777777777777777777777777-5555555555555555-7777777777777777-|-7-|
E|-55555555555555555555555555555555-----------------------------------|-5-|


Bridge (pt.1)

Guitar 1
e|----9--7-----------------9--7-----------------10--9--7--1212121212121212-|
B|----------10-------------------10--7~----777-----------------------------|
G|-9------------9~----999--------------------------------------------------|
D|-------------------------------------------------------------------------|
A|-------------------------------------------------------------------------|
E|-------------------------------------------------------------------------|
 |
e|-14141414--12--9--12~-|
B|----------------------|
G|----------------------|
D|----------------------|
A|----------------------|
E|----------------------|

Guitar 2
e|-----12--10--9-----------------12--10--9-----------------14--12-----|
B|-10-------------10~----101010-------------12~----121212----------15-|
G|--------------------------------------------------------------------|
D|--------------------------------------------------------------------|
A|--------------------------------------------------------------------|
E|--------------------------------------------------------------------|
 |
e|-1616161616161616-19191919--17--16--17~-|
B|----------------------------------------|
G|----------------------------------------|
D|----------------------------------------|
A|----------------------------------------|
E|----------------------------------------|

Guitar 3
e|-------------------------------------------------------------------|
B|-------------------------------------------------------------------|
G|-------------------7--7-777-777-777--4--4-444------------9-9-9-9---|
D|-7--7-777-777-777--7--7-777-777-777--4--4-444--2--2-222--9-9-9-9-7-|
A|-7--7-777-777-777--5--5-555-555-555--2--2-222--2--2-222--7-7-7-7-7-|
E|-5--5-555-555-555------------------------------0--0-000----------5-|
P.M     xx  xx  xx        xx  xx  xx        xx        xx

Bridge (pt.2)

Guitar 1
e|----9--7-----------------9--7-----------------10--9--7--1212121212121212-|
B|----------10-------------------10--7~----777-----------------------------|
G|-9------------9~----999--------------------------------------------------|
D|-------------------------------------------------------------------------|
A|-------------------------------------------------------------------------|
E|-------------------------------------------------------------------------|
 |
e|-14141414--12--9------|
B|------------------10~-|
G|----------------------|
D|----------------------|
A|----------------------|
E|----------------------|

Guitar 2
e|-----12--10--9-----------------12--10--9-----------------14--12-----|
B|-10-------------10~----101010-------------12~----121212----------15-|
G|--------------------------------------------------------------------|
D|--------------------------------------------------------------------|
A|--------------------------------------------------------------------|
E|--------------------------------------------------------------------|
 |
e|-1616161616161616-19191919--17--16------|
B|------------------------------------17~-|
G|----------------------------------------|
D|----------------------------------------|
A|----------------------------------------|
E|----------------------------------------|

Guitar 3
e|-------------------------------------------------------------------|
B|-------------------------------------------------------------------|
G|-------------------7--7-777-777-777--4--4-444------------9-9-9-9---|
D|-7--7-777-777-777--7--7-777-777-777--4--4-444--2--2-222--9-9-9-9-7-|
A|-7--7-777-777-777--5--5-555-555-555--2--2-222--2--2-222--7-7-7-7-7-|
E|-5--5-555-555-555------------------------------0--0-000----------5-|
P.M     xx  xx  xx        xx  xx  xx        xx        xx


Chorus
e|--------------------------------------------------------------------|
B|--------------------------------------------------------------------|
G|----------------------------------7777777777777777-9999999999999999-|
D|-77777777777777777777777777777777-7777777777777777-9999999999999999-|
A|-77777777777777777777777777777777-5555555555555555-7777777777777777-|
E|-55555555555555555555555555555555-----------------------------------|


Outro
e|---------------------------------------------------|
B|---------------------------------------------------|
G|----------------------------------7777777777777777-|
D|-77777777777777777777777777777777-7777777777777777-|
A|-77777777777777777777777777777777-5555555555555555-|
E|-55555555555555555555555555555555------------------|
 |
e|----------------------------|
B|----------------------------|
G|-9999999999999999-----------|
D|-9999999999999999-777777767-|
A|-7777777777777777-777777767-|
E|------------------555555545-|
P.M                  xxxxxx    


By Brandon
comments
print report bad tab
I want to post or [tab]
guest
You may want to rate the tab now too:
select rating
Please do not post tabs as comments. Select "correction" instead!