Oops, an error
Loading. Please wait.

Lying Is The Solution tab

version 2
version 2

Whole song

by Amasic
79 views 1 this week
no commentswrite comment
1 2 3 4 5
3 more votes to show rating
add to favorites
×
Save as Personal and add changes to this tab that will be seen only by you. Learn more ›
×
You can save this tab as Personal to edit and correct it or add notes. All changes will be seen only by you. Learn more »
launch autoscroll
font size
0
reset
how to read this tab
guitar tuner
edit
Autoscroll
slow
fast
+/-
esc
set tempo
stop
Author
Difficulty
Hi,
im Luca, 15 and this is my first Tab of Amasics song Lying Is The Solution.
I play guitar since 11 Months now, but i think, this might be a good Tab :)

Legend:
x = Dead Note/Mute
* = Harmonics
PM|---| = Palm Muted
/ = Slide
p = Pull Off
h = Hammer On
^ = Bending
~ = Bending up and down

Intro:

Guitar I
e|---------------------------------------------------------------------------|
b|---------------------------------------------------------------------------|
G|--11--11--x--x--11--11--x--x--11--11--x--x---------------------------------|
D|--9---9---x--x--9---9---x--x--9---9---x--x--7--7--x--x--7--7--x--x---------|
A|--7---7---x--x--7---7---x--x--7---7---x--x--5--5--x--x--5--5--x--x---------|
E|--------------------------------------------3--3--x--x--3--3--x--x---------|

e|---------------------------------------------------------------------------|
b|---------------------------------------------------------------------------|
G|--------x--x--9--9--x--x--9--9--x--x--9--9--x--x---------------------------|
D|--7--7--x--x--7--7--x--x--7--7--x--x--7--7--x--x--9--9--x--x--9--9--x--x---|
A|--5--5--x--x--5--5--x--x--5--5--x--x--5--5--x--x--7--7--x--x--7--7--x--x---|
E|--3--3--x--x--------------------------------------5--5--x--x--5--5--x--x---|

e|--------------------|
b|--------------------|
G|--------------------|   (Hold the powerchord when you play the dead notes)
D|--9--9--x--x--------|
A|--7--7--x--x--------|
E|--5--5--x--x--------|

Guitar II
(..Lying The Solution~..)
e|----------------12*-------|
b|-----------12*------------|
G|------12*-----------------|
D|--------------------------|
A|--------------------------|
E|--------------------------|


Verse (then the Drum starts)

Guitar I:

e|-----------------------------------------------------------|
b|-----------------------------------------------------------|
G|-----------------------------------------------------------|
D|------It's-the-same-then-in-the-intro----------------------|
A|-----------------------------------------------------------|
E|-----------------------------------------------------------|

Guitar II

 PM|-----------| |-----------| |-----------| |----------| |--| |--------------|
e|----------------------------------------------------------------------------|
b|----------------------------------------------------------------------------|
G|------------------------------7--7--7-7-7---5--5--5--5---55-5-55-5----------|
D|--2--2--2-2-2---5--5--5-5-5---7--7--7-7-7---5--5--5--5---55-5-55-5----------|
A|--2--2--2-2-2---5--5--5-5-5---5--5--5-5-5---0--0--0--0---00-3-33-3----------|
E|--0--0--0-0-0---3--3--3-3-3-------------------------------------------------|

 PM|-----------| |-----------| |------------------------------------------|
e|------------------------------------------------------------------------|
b|------------------------------------------------------------------------|
G|------------------------------7--7--7--7-777----------------------------|
D|--2--2--2-2-2---5--5--5-5-5---7--7--7--7-777--77777777------------------|
A|--2--2--2-2-2---5--5--5-5-5---5--5--5--5-555--77777777------------------|
E|--0--0--0-0-0---3--3--3-3-3-------------------55555555------------------|


Pre Chorus:

(..Thinking that his lies are better than him..):

Guitar I:

e|----------------------------------------------------------------|
b|----------------------------------------------------------------|
G|----------------------------------------------------------------|
D|----It's-the-same-then-in-the-intro-----------------------------|
A|----------------------------------------------------------------|
E|----------------------------------------------------------------|


Guitar II:

(You must listen to the Song to get that correct tempo)
e|----------------------------------------|
b|----------------------------------------|
G|-12--11--12--14--17--16--12-------------|   <--- play that 2 times
D|-x---x---x---x---x---x---x--------------|
A|-10--9---10--12--15--14--10-------------|
E|----------------------------------------|

Guitar III:
  (Play The Palm Mute Fast)
PM   |----|   |----|   |--|    |----|   |----|   |--|    |----|   |---------|
e|--------------------------------------------------------------------------|
b|--------------------------------------------------------------------------|
G|-----------------------------------------------------7--7777--7--7777--7--|
D|-2--2222--2--2222--2--22---5--5555--5--5555--5--55---7--7777--7--7777--7--|
A|-2--2222--2--2222--2--22---5--5555--5--5555--5--55---5--5555--5--5555--5--|
E|-0--0000--0--0000--0--00---3--3333--3--3333--3--33------------------------|
   |--|    |----|   |----|  |-----------------------------------------------|
e|--------------------------------------------------------------------------|
b|--------------------------------------------------------------------------|
G|--77---5--5555--5--5555--5-55---------------------------------------------|
D|--77---5--5555--5--5555--5-55--------------------| <----------------------| Play that 2 times
A|--55---0--0000--0--0000--0-00---------------------------------------------|
E|--------------------------------------------------------------------------|


Verse 2

Play the Verse like the first Verse 2 times and then play
PM|---|   |----|   |--|   |---|   |----|   |--|    |---|   |----|   |---------|
e|----------------------------------------------------------------------------|
b|----------------------------------------------------------------------------|
G|----------------------------------------------------------------------------|
D|-------------------------------------------------------7--------7------7----|
A|------2--------2------2-------5--------5------5---5-5-----5-55-----55-------|
E|-0-0-----0-00-----00-----3-3-----3-33-----33--------------------------------|
   |--|   |-------------------------------------------------------------------|
e|----------------------------------------------------------------------------|
b|----------------------------------------------------------------------------|
G|----------------------------------------------------------------------------|
D|----------------------------------------------------------------------------|
A|------7--------7-9p-7-------------------------------------------------------|
E|--5-5----5-55---------------------------------------------------------------|

  |---|   |----|   |--|   |---|   |----|   |--|    |---|   |----|   |---------|
e|----------------------------------------------------------------------------|
b|----------------------------------------------------------------------------|
G|----------------------------------------------------------------------------|
D|-------------------------------------------------------7--------7------7----|
A|------2--------2------2-------5--------5------5---5-5-----5-55-----55-------|
E|-0-0-----0-00-----00-----3-3-----3-33-----33--------------------------------|

e|----------------------------------------------------|
b|----------------------------------------------------|
G|----------------------------------------------------|
D|--7-7-7-7-7-7-7-7-----------------------------------|
A|--7-7-7-7-7-7-7-7-----------------------------------|
E|--5-5-5-5-5-5-5-5-----------------------------------|




After the second Verse, you play the Pre Chorus again but End with a slide


e|-------------------------------|
b|-------------------------------|
G|-------------------------------|
D|----14-/-2---------------------|
A|----14-/-2---------------------|
E|----14-/-2---------------------|

After the slide, you play the Chorus:


Guitar I:


e|-------------------------------------------------------------------------|
b|-------------------------------------------------------------------------|
G|--9-9-9-9-9-9-9-9---5-5-5-5-5-5-5-5---------------------7-7-7-7-7-7-7-7--|
D|--9-9-9-9-9-9-9-9---5-5-5-5-5-5-5-5---5-5-5-5-5-5-5-5---7-7-7-7-7-7-7-7--|
A|--7-7-7-7-7-7-7-7---3-3-3-3-3-3-3-3---5-5-5-5-5-5-5-5---5-5-5-5-5-5-5-5--|
E|--------------------------------------3-3-3-3-3-3-3-3--------------------|

Play this 2 times

Guitar II:

e|---------------------------------------------------------------------------|
b|---------------------------------------------------------------------------|
G|-9-9-9-9-9-9-9-9---5-5-5-5-5-5-5-5---12-12-12-12-12-12-12-12---------------|
D|-x-x-x-x-x-x-x-x---x-x-x-x-x-x-x-x---x--x--x--x--x--x--x--x----------------|
A|-7-7-7-7-7-7-7-7---3-3-3-3-3-3-3-3---10-10-10-10-10-10-10-10---------------|
E|---------------------------------------------------------------------------|

e|---------------------------------------------------------------------------|
b|---------------------------------------------------------------------------|
G|--16-16-16-16-16-/-14-/-12-/-9-9-9-9-9-9-9-9---5-5-5-5-5-5-5-5-------------|
D|--x--x--x--x--x--/-x----x--/-x-x-x-x-x-x-x-x---x-x-x-x-x-x-x-x-------------|
A|--14-14-14-14-14-/-12-/-10-/-7-7-7-7-7-7-7-7---3-3-3-3-3-3-3-3-------------|
E|---------------------------------------------------------------------------|

e|-------------------------------------------------------------|
b|-------------------------------------------------------------|
G|---12-12-12-12-12-12-12-12-----------------------------------|
D|---x--x--x--x--x--x--x--x---12p-11p-12p-14p-12p-11p-12p-11p--|
A|---10-10-10-10-10-10-10-10-----------------------------------|
E|-------------------------------------------------------------|



Bridge + Solo 1

Guitar I:

e|---------------------------------------------------------|
b|---------------------------------------------------------|
G|--11-11--x--x-11-11--x--x-11-11--x--x--------------------|
D|---9--9--x--x--9--9--x--x--9--9--x--x--------------------|
A|---7--7--x--x--7--7--x--x--7--7--x--x--------------------|
E|---------------------------------------------------------|

Play this all the time

Guitar II:

(Starts with the singin)
e|-----------12*-----------------|
b|------12*----------------------|
G|-------------------------------|  Play this a few times
D|-------------------------------|
A|-------------------------------|
E|-------------------------------|


Guitar III:

(Starts after harmonics)
PM|---------------------------------------------|  |--------------|
e|----------------------------------------------------------------|
b|----------------------------------------------------------------|
G|------------------------------------------------5----5----------|
D|--22-2-2-22--22-2-2-22--22-2-2-22--22-2-2-2-22--5-22-5----------|
A|--22-2-2-22--22-2-2-22--22-2-2-22--22-2-2-2-22--3-22-3----------|
E|--00-0-0-00--00-0-0-00--00-0-0-00--00-0-0-0-00----00------------|

repeat this a few times

Then
PM|-------------------------------------------------------------------------|
e|--------------------------------------------------------------------------|
b|--------------------------------------------------------------------------|
G|--------------------------------------------------------------------------|
D|--22-2-2-22-2-2-2-22-2-2-22-2-2-2-22-2-2-22-2-2-2--2-2-2-2-2-2-2-2-2-2----|
A|--22-2-2-22-2-2-2-22-2-2-22-2-2-2-22-2-2-22-2-2-2--2-2-2-2-2-2-2-2-2-2----|
E|--00-0-0-00-0-0-0-00-0-0-00-0-0-0-00-0-0-00-0-0-0--0-0-0-0-0-0-0-0-0-0----|


Open the end slowly from Palm Mute

Solo 1:

The first part of this Solo

Guitar I:


e|--------------------------------------------------------------------------|
b|--------------------------------------------------------------------------|
G|--------------------------------------------------------------------------|
D|--------------------------------------------------------------------------|
A|-10~--10-9-10~--10-5-6~--9-10-9-7-9-10~--10-9-10~--10-5-6~--9-10-9-7-9-10-|
E|--------------------------------------------------------------------------|


Guitar II:
PM|     |--|     |--|      |--|      |--------|
e|--------------------------------------------|
b|--------------------------------------------|
G|--5----55-------------4---44----------------|
D|--5----55---5---55----4---44-----2--22------|
A|--3----33---5---55----2---22-----2--22------|
E|------------3---33---------------0--00------|

repeat this, but end with:
PM|     |------------------------------------------|
e|-------------------------------------------------|
b|-------------------------------------------------|
G|---4---44444444444444----------------------------|
D|---4---44444444444444----------------------------|
A|---2---22222222222222----------------------------|
E|-------------------------------------------------|



The second part of this Solo:

Guitar I:

e|----------------------------------------------------|
b|----------------------------------------------------|
G|--12~--12-11-12~--12-7-8~--11-12-11-9-11-12~--------|
D|----------------------------------------------------|
A|----------------------------------------------------|
E|----------------------------------------------------|

Play 2 times

Guitar II:

e|--------------------------------------------------|
b|--------------------------------------------------|
G|--16~--16-14-16~--16-10-11~-14-16-14-12-14-16~----|
D|--------------------------------------------------|
A|--------------------------------------------------|
E|--------------------------------------------------|

Play 2 times

enjoy the Song !

©Luca Chiarelli

            
            
Suggest correction
Creating personal tab
Creating personal tab
You can edit any tab online and save it as your Personal.

You can edit, replace or remove any tab part or add personal notes – all changes will be seen only by you.

Personal tabs can be accessed anytime from any device, even offline.
Learn more »
Give kudos to tab author, rate the tab!
1 2 3 4 5
comments
print report bad tab
guest
You may want to rate the tab now too:
select rating
Wanna post a correction for this tab? Suggest correction