Oops, an error
Loading. Please wait.

A New Start tab

1,570 views 1 this week
no commentswrite comment
1 2 3 4 5
1 last vote to show rating
add to favorites
×
Save as Personal and add changes to this tab that will be seen only by you. Learn more ›
×
You can save this tab as Personal to edit and correct it or add notes. All changes will be seen only by you. Learn more »
launch autoscroll
font size
0
reset
how to read this tab
guitar tuner
edit
Autoscroll
slow
fast
+/-
esc
set tempo
stop
Author
Difficulty
Song:   A New Start
Band:   The Ambassadors
Album:  Life Goes On

Tabber: Pauz Prima

----------------------------------------------------------------------------------------

A NEW START


INTRO:

Guitar1: A---
e|----------------------------------|---------------------------------|
B|------10~-----10~------10~--------|-----10~-----10~-----10~---------|
G|---9-------9-------9--------9--9~-|---9------9-------9-------9---9~-|
D|----------------------------------|-7--7-------7-------7-------7----|
A|-7--7--------7-------7--------7---|---------------------------------|
E|----------------------------------|---------------------------------|

e|----------------------------------|-------------7-----|
B|------10~-----10~------10~--------|-----10~-------10~-|
G|---9-------9-------9--------9--9~-|---9------9--------|
D|----------------------------------|-7--7-------7------|
A|-7--7--------7-------7--------7---|-------------------|
E|----------------------------------|-------------------|

Guitar2:
e|----------------------------|
B|-//14~~~--//10~~--10/12~~~--|
G|----------------------------|
D|----------------------------|
A|----------------------------|
E|----------------------------|

Guitar1
       F#m            D        A           F#m	        D        A
e|----------------------------------|------------------------------------|
B|----------------------------------|------------------------------------|
G|----------------77777777----------|----------------77777777------------|
D|-44444444444444-77777777-77777777-|-44444444444444-77777777-777777-7~~-|
A|-44444444444444-55555555-77777777-|-44444444444444-55555555-777777-7~~-|
E|-22222222222222----------55555555-|-22222222222222----------555555-5~~-|


Guitar2:

e|----------------------------------|
B|----------------------------------|
G|----------------77777777----------|
D|-44444444444444-77777777-77777777-|
A|-44444444444444-55555555-77777777-|
E|-20202022020202----------55555555-|

e|-----------------------------------------------------------------|
B|---------------9-10---------------9-10-------/10-----------------|
G|-11--9-11-9-11------11--9-11-9-11------9~--9-----9-7-6-7-4--4/6~-|
D|-----------------------------------------------------------------|
A|-----------------------------------------------------------------|
E|-----------------------------------------------------------------|


VERSE1:

Guitar1 & 2:
   (A) C#m     F#m----             D         E       A           
e|---------------------------------------------------------|
B|---------------------------------------------------------|
G|-----6~~-xxx------xxx------xxx-77777777/99999999---------|
D|-(7)-6~~-xxx-4-44-xxx-4-44-xxx-77777777/99999999-0-7~~~~-|
A|-(7)-4~~-xxx-4-44-xxx-4-44-xxx-55555555/77777777-0-7~~~~-|
E|-(5)-----xxx-2-22-xxx-2-22-xxx-------------------0-5~~~~-|

Guitar2:
        A                 C#m                F#m               D    E ---> Guitar1: PICKSLIDE
e|---------------|-------------------|-----------------------|----|----|
B|---------------|-------------------|-----------------------|----|----|
G|---6p4-6p4-6p4-|-------6p4-6p4-6p4-|-------9p7-7----9p7-7--|-7~~|-9~~|
D|---------------|-------------------|------------7--------7-|-7~~|-9~~|
A|---------------|-2-2h4~~-----------|-2~-/9---------9-------|-5~~|-7~~|
E|-5~~-----------|-------------------|-----------------------|----|----|


REFRAIN:

Guitar1
    F#m   C#m     D                     E
e|----------------------|	     |---------------|
B|----------------------|	     |---------------|
G|-------6-66--7-777777-|	     |-9999999999999-|
D|-4-44--6-66--7-777777-| 3x         |-9999999999999-|
A|-4-44--4-44--5-555555-|	     |-7777777777777-|
E|-2-22-----------------|	     |---------------|

Guitar2:
e|-------------------------|---------------------------|-------------------------|-------------|
B|-9--10-9-----------------|-9--10-9-------------------|-9--10-9-----------------|-------------|
G|---------9--11-9---------|---------9--11-9-----------|---------9--11-9---------|-------------|
D|-----------------9-11-7~-|-----------------9--11-7-9~|-----------------9-11-7~-|--66--77--99-|
A|-------------------------|---------------------------|-------------------------|-7---7---7---|
E|-------------------------|---------------------------|-------------------------|-------------|


INTERLUDE:

Guitar1:
     A       C#m        F#m     D     E    A        C#m        F#m    D      E(break) 
e|--------------------------------------|--------------------------------------|-----|
B|--------------------------------------|--------------------------------------|-----|
G|----------6-666-------------7-7777-/9-|----------6-666-------------7-7777-/9-|-----|
D|-7-777----6-666-----4-44-4--7-7777-/9-|-7-777----6-666-----4-44-4--7-7777-/9-|-7~~-|
A|-7-777----4-444-----4-44-4--5-5555-/7-|-7-777----6-666-----4-44-4--5-5555-/7-|-7~~-|
E|-5-555--------------2-22-2------------|-5-555--------------2-22-2------------|-5~~-|

Guitar2:
e|-----------------------------------------|------------------------------------------------|
B|-----------------------------------------|------------------------------------------------|
G|-------6----6-666-6------------7-7777-/9-|-------6----6-666-6-9---------9~-7-6-7-6-4~-----|
D|-7-777---7--6-666---7--4-44-4--7-7777-/9-|-7-777---7--6-666------4-44-4---------------7~~-|
A|-7-777------4-444------4-44-4--5-5555-/7-|-7-777------4-444------4-44-4---------------7~~-|
E|-5-555-----------------2-22-2------------|-5-555-----------------2-22-2---------------5~~-|


VERSE2:

Guitar1 & 2:
e|--------------------------------------------------|
B|--------------------------------------------------|
G|-----6~~-xxx------xxx------xxx-77777777/99999999--|
D|-(7)-6~~-xxx-4-44-xxx-4-44-xxx-77777777/99999999--|
A|-(7)-4~~-xxx-4-44-xxx-4-44-xxx-55555555/77777777--|
E|-(5)-----xxx-2-22-xxx-2-22-xxx--------------------|


REFRAIN:

Guitar1
    F#m   C#m     D                      E
e|----------------------|	     |---------------|
B|----------------------|	     |---------------|
G|-------6-66--7-777777-|	     |-9999999999999-|
D|-4-44--6-66--7-777777-| 3x         |-9999999999999-|
A|-4-44--4-44--5-555555-|	     |-7777777777777-|
E|-2-22-----------------|	     |---------------|

Guitar2:
e|-------------------------|---------------------------|-------------------------|-------------|
B|-9--10-9-----------------|-9--10-9-------------------|-9--10-9-----------------|-------------|
G|---------9--11-9---------|---------9--11-9-----------|---------9--11-9---------|-------------|
D|-----------------9-11-7~-|-----------------9--11-7-9~|-----------------9-11-7~-|--66--77--99-|
A|-------------------------|---------------------------|-------------------------|-7---7---7---|
E|-------------------------|---------------------------|-------------------------|-------------|


CHORUS:

Guitar1 & 2:
    A      C#m      D---           A     C#m     F#m--       E   
e|------------------------------|-----------------------------------|
B|------------------------------|-----------------------------------|
G|--------6-66---7-777777777777-|--------6-66-----------------------|
D|-7-77---6-66---7-777777777777-|-7-77---6-66---4-44444444-22222222-|
A|-7-77---4-44---5-555555555555-|-7-77---4-44---4-44444444-22222222-|
E|-5-55-------------------------|-5-55----------2-22222222-00000000-|

    A           C#m         D---             A         C#m        F#m        E         D
e|--------------------------------------|----------------------------------------------------|
B|--------------------------------------|----------------------------------------------------|
G|------------6-66666666-7-777777777777-|------------6-66666666---------------------77777777-|
D|-7-77777777-6-66666666-7-777777777777-|-7-77777777-6-66666666-4-44444444-22222222-77777777-|
A|-7-77777777-4-44444444-5-555555555555-|-7-77777777-4-44444444-4-44444444-22222222-55555555-|
E|-5-55555555---------------------------|-5-55555555------------2-22222222-00000000----------|

e|------------------------|
B|-9h10-9-----------------|
G|--------9--11-9---------|
D|----------------9~-11-7-|
A|------------------------|
E|------------------------|


BRIDGE:

Guitar1 & 2:
   F#m     E      D----         F#m               E         D---
e|--------------------------|---------------------------------------------|
B|--------------------------|---------------------------------------------|
G|-11~~---9~~~---7~~~--7~~~-|-1111111111111111-99999999-77777777777777-7~-|
D|-11~~---9~~~---7~~~--7~~~-|-1111111111111111-99999999-77777777777777-7~-|
A|-9~~~---7~~~---5~~~--5~~~-|-9-9-9-9-9-9-9-9--77777777-55555555555555-5~-|
E|--------------------------|---------------------------------------------|

Guitar1:
     A          E        D---
e|------------------------------------|
B|------------------------------------|
G|----------99999999-7777777777777777-|
D|-77777777-99999999-7777777777777777-|  2x
A|-77777777-77777777-5555555555555555-|
E|-55555555---------------------------|

Guitar2:
e|--------------------|
B|--------------------|
G|-----9--------------|
D|---7--7-9-7-9/11-7~-|  8x
A|-7------------------|
E|--------------------|


INTERLUDE:

Guitar1:
      A            E             D           E
e|-----------------------------------------------------|
B|-----------------------------------------------------|
G|--------------999999999999-777777777777-999999999999-|
D|-777777777777-999999999999-777777777777-999999999999-|
A|-777777777777-777777777777-555555555555-777777777777-|
E|-555555555555----------------------------------------|

Guitar2:
e|-----------------------------|		    |--------------------------|
B|-----------------------------|		    |--------------------------|
G|-9--6h7-6-------------7----9-|		    |-9--6h7-6-------------7---|
D|-----------7h9-7--7-9--9-7---| 3x 	            |-----------7h9-7--7-9---9-|
A|-----------------------------|		    |--------------------------|
E|-----------------------------|		    |--------------------------|


Guitar1:
       A          E               D-----                E
e|------------------------------------------------------------|
B|------------------------------------------------------------|
G|--------------999999999999-77777777777777-77777777-99999999-|
D|-777777777777-999999999999-77777777777777-77777777-99999999-|
A|-777777777777-777777777777-55555555555555-55555555-77777777-|
E|-555555555555-----------------------------------------------|

Guitar2:
e|----------------------------------------------10~--|
B|-9-10-9------9-10-9-7-----9-10-9-----9-10-9-12-----|
G|--------9~~-----------9~---------9~----------------|
D|---------------------------------------------------|
A|---------------------------------------------------|
E|---------------------------------------------------|

e|----------------------------------------------------------------------------|
B|-9--10.9-10.9-10.9-10.9-10.9-10.9-10.9-10--9-10.9-10.9-10.9-10.9-10.9-------|
G|----------------------------------------------------------------------99999-|
D|----------------------------------------------------------------------99999-|
A|----------------------------------------------------------------------77777-|
E|----------------------------------------------------------------------------|

VERSE:

Guitar1 & 2
e|-----------------------------------|----------------------------------------|
B|-----------------------------------|----------------------------------------|
G|-----------666666666-7777777777777-|-----------666666666--------------------|
D|-777777777-666666666-7777777777777-|-777777777-666666666-444444444-22222222-|
A|-777777777-444444444-5555555555555-|-777777777-444444444-444444444-22222222-|
E|-555555555-------------------------|-555555555-----------222222222-00000000-|


CHORUS:

Guitar1 & 2:
e|------------------------------|-----------------------------------|
B|------------------------------|-----------------------------------|
G|--------6-66---7-777777777777-|--------6-66-----------------------|
D|-7-77---6-66---7-777777777777-|-7-77---6-66---4-44444444-22222222-|
A|-7-77---4-44---5-555555555555-|-7-77---4-44---4-44444444-22222222-|
E|-5-55-------------------------|-5-55----------2-22222222-00000000-|

e|--------------------------------------|----------------------------------------------------|
B|--------------------------------------|----------------------------------------------------|
G|------------6-66666666-7-777777777777-|------------6-66666666---------------------77777777-|
D|-7-77777777-6-66666666-7-777777777777-|-7-77777777-6-66666666-4-44444444-22222222-77777777-|
A|-7-77777777-4-44444444-5-555555555555-|-7-77777777-4-44444444-4-44444444-22222222-55555555-|
E|-5-55555555---------------------------|-5-55555555------------2-22222222-00000000----------|

e|------------------------|
B|-9h10-9-----------------|
G|--------9--11-9---------|
D|----------------9~-11-7-|
A|------------------------|
E|------------------------|


OUTRO:

Guitar1: (low volume)
e|----------------------|
B|----------------------|
G|----------------------|
D|-xxx-44444-444444-xxx-|
A|-xxx-44444-444444-xxx-|
E|-xxx-20202-020202-xxx-|

e|----------------------------------|
B|----------------------------------|
G|----------------77777777----------|
D|-44444444444444-77777777-77777777-|
A|-44444444444444-55555555-77777777-|
E|-22222222222222----------55555555-|

e|--------------------------------------|
B|--------------------------------------|
G|----------------77777777--------------|
D|-44444444444444-77777777-7-77777--4~~-|
A|-44444444444444-55555555-7-77777--4~~-|
E|-22222222222222----------5-55555--2~~-|

Guitar2
e|----------------------------------|
B|----------------------------------|
G|----------------77777777----------|
D|-44444444444444-77777777-77777777-|
A|-44444444444444-55555555-77777777-|
E|-20202022020202----------55555555-|

e|-------------------------------------------------------|
B|-------------------------------------------------------|
G|-1111111111111111-/14-141414141414-0-6-66666/9--11~~~--|
D|-xxxxxxxxxxxxxxxx-/14-xxxxxxxxxxxx-0-x-xxxxx/x--xx~~~--|
A|-9-9-9-9-9-9-9-9--/12-121212121212-0-4-44444/7--9~~~~--|
E|-------------------------------------------------------|

----------------------------------------------------------------------------------------

> Senthyx Band
     - jo
     - randz
     - andy
     - pauz

> SenthyX Zone
Suggest correction
Creating personal tab
Creating personal tab
You can edit any tab online and save it as your Personal.

You can edit, replace or remove any tab part or add personal notes – all changes will be seen only by you.

Personal tabs can be accessed anytime from any device, even offline.
Learn more »
Give kudos to tab author, rate the tab!
1 2 3 4 5
comments
print report bad tab
guest
You may want to rate the tab now too:
select rating
Wanna post a correction for this tab? Suggest correction