Oops, an error
Loading. Please wait.

It Might Be You Tab

version 1
version 1

Intro

Whole song

8,152 views 6 this week
2 commentsread comments
1 2 3 4 5
accurate
x 1
add to favorites
launch autoscroll
font size
0
reset
how to read this tab
guitar tuner
Tab Pro tools
  • play this tab
  • loop segment
  • change instrument
  • show fretboard
  • metronome
Autoscroll
slow
fast
+/-
esc
set tempo
stop
Contributor
Difficulty
intermediate
It Might be you-Ambassadors
Spread the sound of the south
Stop Piracy PLEASE
Ear Tabber:Christian Allen I. Llorin
Special thanks:to the Ambassadors and
Stephen Bishop soo much
for this kickass song
Dedicated to:My cousins in Cebu,My family
including my baby'anj(i love you soo soo soo
SOOO much!!),and to my guitar!!\,,/

*Tuning:E-B-G-D-A-E
*Effects used:DISTORTION/OVERDRIVE

INTRODUCTION:

PART1(CLEAN):

GUITAR1:
E------3----3---2---3---3---3--|
B--------3----3---3---3---3----|
G-0----------------------------|
D------------------------------|
A------------------------------|
E------------------------------|

E------3----3---2---3---3---3--|
B--------3----3---3---3---3----|
G-4----------------------------|
D------------------------------|
A------------------------------|
E------------------------------|

E------3----3---2---3---3---3--|
B--------3----3---3---3---3----|
G-5----------------------------|
D------------------------------|
A------------------------------|
E------------------------------|

E------5----5---5h7p5-3-3h5-3--|
B--------5----5----------------|
G-7----------------------------|
D------------------------------|
A------------------------------|
E------------------------------|

GUITAR2:

E-----3-----5-5\7-3--|
B---3---3------------|
G-0------------------|
D--------------------|
A--------------------|
E--------------------|

E-----3-----5-5\7-3--|
B---3---3------------|
G-4------------------|
D--------------------|
A--------------------|
E--------------------|

E-----3-----5-5\7-3--|
B---3---3------------|
G-5------------------|
D--------------------|
A--------------------|
E--------------------|

E-----3-----5hp3------3--|
B---3---3--------3h5-----|
G-5----------------------|
D------------------------|
A------------------------|
E------------------------|

PART2(ENTER DISTORTION/OVERDRIVE):

GUITAR1:

E------------------|
B------------------|
G----0---2-2h4-0---|
D------0-----------|
A------------------|
E-3----------------|

E------------------|
B------------------|
G----0---2-2h4-5---|
D------0-----------|
A-2----------------|
E------------------|

E------------------|
B------------------|
G----0---2-2h4-0---|
D------0-----------|
A-3----------------|
E------------------|

E-------------|
B-------------|
G-------------|
D-------------|
A-5-4-2-4-2-0-|
E-------------|

GUITAR2:

E----------------------|
B----------------------|
G-------4----5----7----|
D-5-----4----5----7----|
A-5-----2----3----5----|
E-3--------------------|

PART 3:

GUITAR2:

E---------------------------------------------------------|
B---------------------------------------------------------|
G---------------4-XXX-4-4-4--5-XXX-5-5-5---7-XXX-7-7-7----|
D-5--XXX-5-5-5--4-XXX-4-4-4--5-XXX-5-5-5---7-XXX-7-7-7----|
A-5--XXX-5-5-5--2-XXX-2-2-2--3-XXX-3-5-3---5-XXX-5-5-5----|
E-3--XXX-3-3-3--------------------------------------------|

GUITAR1:

E---9-7-6-----9-7-6-9----------9-7-6----9-9h11p9-7h9p7-9-7--|
B-7-------7-7----------7h9h11---------7---------------------|
G-----------------------------------------------------------|
D-----------------------------------------------------------|
A-----------------------------------------------------------|
E-----------------------------------------------------------|

E------------------------------------------------14-12-11-12-9h11-7-----|
B-9-9\11-9-11-9-11-11-12-11-12-11-12-12-14-12-14------------------------|
G-----------------------------------------------------------------------|
D-----------------------------------------------------------------------|
A-----------------------------------------------------------------------|
E-----------------------------------------------------------------------|

**END OF INTRODUCTION**

VERSE:

TIME...

GUITAR1 & GUITAR2:
E---------------------------------------------------------|
B---------------------------------------------------------|
G---------------4-XXX-4-4-4--5-XXX-5-5-5---7-XXX-7-7-7----|
D-5--XXX-5-5-5--4-XXX-4-4-4--5-XXX-5-5-5---7-XXX-7-7-7----|
A-5--XXX-5-5-5--2-XXX-2-2-2--3-XXX-3-5-3---5-XXX-5-5-5----|
E-3--XXX-3-3-3--------------------------------------------|

WISHIN' THERE WOULD BE..

GUITAR1:

E-3/5--
B------|
G------|
D------|
A------|
E------|

SOMETHIN'S TELLIN' ME...

GUITAR1:

E--------------|
B--------------|
G-5/7/5/4/5----|
D-XXXXXXXXX----
A-3/5/3/2/3----|
E--------------|

MAYBE  IT'S YOU..

GUITAR1 & GUITAR2:

E----------------------|
B----------------------|
G-------4----5----7----|
D-5-----4----5----7----|
A-5-----2----3----5----|
E-3--------------------|

AD LIB:

PART1 :

GUITAR2:

E----------------------|
B----------------------|
G-------4----5----7----|
D-5-----4----5----7----|
A-5-----2----3----5----|
E-3--------------------|

GUITAR1:

E---------------------------------------|
B---------------------------------------|
G-2-2/4-2--2-2/4-5-2-2/4-2-7-5-4-5-4-0--|
D---------------------------------------|
A---------------------------------------|
E---------------------------------------|

PART2:

GUITAR2:

E----------------------|
B----------------------|
G-------4----5----7----|
D-5-----4----5----7----|
A-5-----2----3----5----|
E-3--------------------|

GUITAR2:

E----------------------------|
B----------------------------|
G-------------7-5-4-4/5-4-2--|
D----------------------------|
A-5p3-3-5p3------------------|
E----------------------------|

**END OF AD LIB**

CODA(CLEAN):

PART1:

GUITAR2:

E-----3-----5-5\7-3--|
B---3---3------------|
G-0------------------|
D--------------------|
A--------------------|
E--------------------|

E-----3-----5-5\7-3--|
B---3---3------------|
G-4------------------|
D--------------------|
A--------------------|
E--------------------|

E-----3-----5-5\7-3--|
B---3---3------------|
G-5------------------|
D--------------------|
A--------------------|
E--------------------|

E-----3-----5hp3------3--|
B---3---3--------3h5-----|
G-5----------------------|
D------------------------|
A------------------------|
E------------------------|

PART2:

GUITAR2:

E--------10-10---------10-10--------------10-10-12-8-10-10-8h10p8--------|
B---8--8-----------8--8--------------8---8--------------------------8----|
G-7---7---------7---7-----------9--9----9--------------------------------|
D------------------------------------------------------------------------|
A------------------------------------------------------------------------|
E------------------------------------------------------------------------|

GUITAR1:

E-9-7-6-----9-7-6-------9-9-9-7-6----9-7-6---|
B--------7--------7---------------7----------|
G--------------------------------------------|
D--------------------------------------------|
A--------------------------------------------|
E--------------------------------------------|

***END OF TAB,ENJOY!!!***
comments
We did not receive enough feedback on this tab! Please rate:
print report bad tab
1 2 3 4 5
2 comments total.
0 reply
marcoRAKIZTA wrote on May 22 2007, 01:31 am

hmmmmmm..........so is this ryt???????????????????/hmmm maybe???

0 reply
mozartamadeus wrote on March 14 2009, 09:47 pm

yeah u suck

I want to post or [tab]
guest
You may want to rate the tab now too:
select rating
Please do not post tabs as comments. Select "correction" instead!