Oops, an error
Loading. Please wait.

Ulipon Sa Gugmang Giatay Tab

3,063 views 6 this week
no commentswrite comment
1 2 3 4 5
2 more votes to show rating
add to favorites
launch autoscroll
font size
0
reset
how to read this tab
guitar tuner
Autoscroll
slow
fast
+/-
esc
set tempo
stop
Help us to improve Ultimate-Guitar.com Take our survey!
×
Author
Difficulty
Tuning: Standard

This song is for all the victims of gugmang giatay out there…This tab is about 80-90%
but please, just try and rate this.. It is dedicated to all my friends especially to
Brena, Eloisa and Aufinx who are studying out there in Cebu… Hope to see guyzzz 
Once again this is Stephen Obbus, add me to your friends at friendster..
and for comments and suggestion, call or text 09183865859…

Intro:
        G                                                            C9                                 D
e--------------------------------------------------------------------------------------2---3s5-------------|e
B---------0h1p0----------------------------------------------0---------------------------------------------|B
G-----------------------------------0---------0-----------0---------2----0-----2---------------------------|G
D------0-------------------------------4--2----------2--------------------------0--------------------------|D
A------------------------------2-------------------3-------------------------------------------------------|A
E----3--------------3--2--0--------------------------------------------------------------------------------|E

Verse1:
       G                                      C9                      D
e------------------------------------------------------------------2---------------------------------------|e
B-------------3--3-----------3---3--------3-------------------3-----3--------------------------------------|B
G----------0---0--0-------0---0--0-----0--0---------------2-----2------------------------------------------|G
D--------0---------------0---------------------2----------0------------------------------------------------|D
A--------------------------------------3-------------------------------------------------------------------|A
E----3----------------3------------------------------------------------------------------------------------|E
     Boot kung...Masayod….        Paminawaon…     Mo….
       G                                                               C9                         D
e--------------------------------------------------------------3-------------------2--2—3s5---------------|e
B-----------3-----------------------------------------------3---3--------------3--------------------------|B
G--------0----0------------------------------------------0------------------2-----------------------------|G
D-----0--------------------------0--------0-------------2----------------0--------------------------------|D
A-----------------------------2-----4--2------------3-----------------------------------------------------|A
E---3---------------3--2--0-------------------------------------------------------------------------------|E
      Kay kung…                    Yan-iran mo…  Mga panumpaw…Pasalig ko…
       G                                                   C9                                 D
e-----------------------------------------------------3------------------------2----------------------------|e
B-----------3-------------------------------------3---3--------------------3----3---3-----------------------|B
G--------0---0---------------------------------0-------0----------------2--------2-----2--------------------|G
D------0----------------------0--------0-------------------------------0------------------------------------|D
A--------------------------2-----4--2------3----------------------------------------------------------------|A
E---3------------3--2--0------------------------------------------------------------------------------------|E
     Ug kung hugalit.. Kalit...               Di ko kapug-ngan..                          Kay

Refrain:
      C9                    D                        G
e---------------3-------------2-----------------------------------------------------------------------------|e
B------------3--3---------3----3---3----------3--------3--------3------3------------------------------------|B
G---------0------0-----2---------2----------0--------0--------0-----0---------------------------------------|G
D------2-------------0---------------------0--------0-------2-----------------------------------------------|D
A--3--------------------------------------------------------------------------------------------------------|A
E-----------------------------------------3--------2-------0------------------------------------------------|E
     Ikaw..          pinangga…            Ko…Karon      Unya….
Repeat G and the 2nd C9 twice…
      C9                           D                         G                      C9
e---------------3-------------------2----------------------------------------------------------------------|e
B-----------3----3--------------3---3---3------------3----3-----------3--3---------------------------------|B
G--------0---------0---------2--------2------------0---0----0------0---0--0--------------------------------|G
D-----2--------------------0----------------------0----------------2---------------------------------------|D
A--3--------------------------------------------------------------3----------------------------------------|A
E-----------------------------------------------3----------------------------------------------------------|E
      Ikaw, langit ug      Yuta                piNanggaaaaaa… Ahaaa …
                                                                Holaaa….         Ahaaa…

Verse2:
        G                                         C9                   G
e------------3-------3------3---3----------3------2--------------3--2---3--------------------------------|e
B---------3-------3------3---3---3------3------3-------------3-3-----------------------------------------|B
G-------0-------0------0--------------0-------2-------------0--------------------------------------------|G
D---------------------------------------------0-------------0--------------------------------------------|D
A-------------------------------------3------------------------------------------------------------------|A
E----3-------2-------0-----------------------------------3-----------------------------------------------|E
       Unya….         Kangitngit… Nga.  Duyugan   Ulan….
        Em                   G/B                 C9                         D
e-------------------------------------------------3--------------------2---------------------------------|e
B------------3-----------------3----3--------3---3---3-----------3----3---3------------------------------|B
G---------0----0----------0-----0---0-----0-------0-----------2---------2--------------------------------|G
D-------2--------2------0-------------------------------------0------------------------------------------|D
A-----2------------2--2-----------------3----------------------------------------------------------------|A
E----0---------------------------------------------------------------------------------------------------|E
      Ug sa kalit… Nahanaw..           Ang bedlisyo sa   Adlaw….
Chorus1:
         G                      D                      Em                      C9
e-------------------------------2---2---------------------------------------------------------------------|e
B-------------3---3---------3---3---3-----------3---3----------------3--3---------------------------------|B
G-----------0--0----0----2---------------------0--0---0-----------0---0---0-------------------------------|G
D---------0-------------0---------------------2------------------2----------------------------------------|D
A---------------------------------------------------------------3-----------------------------------------|A
E-----3------------------------------------0--------------------------------------------------------------|E
       Kahayag..           Panagway..     Ulipon sa…         Gugmang giatay….
        G                        D                     Em                      C9
e-------------------------------2---2---------------------------------------------------------------------|e
B-------------3---3---------3---3---3-----------3---3----------------3--3---------------------------------|B
G-----------0--0----0----2---------------------0--0---0-----------0---0---0-------------------------------|G
D---------0-------------0---------------------2------------------2----------------------------------------|D
A---------------------------------------------------------------3-----------------------------------------|A
E-----3------------------------------------0--------------------------------------------------------------|E
       Paminawa          Gugma..         Kanimo akong… Igasa…

     C9                     D                          G
e-----------------------------2--------------------------------------------------------------------------|e
B-----------3--3----------3----3---3------------3-------3-------3--3-------------------------------------|B
G--------0---0---0-----2---------2------------0-------0-------0--0--0------------------------------------|G
D-----2---------------0-----------------------0------0--------2------------------------------------------|D
A--3-----------------------------------------------------------------------------------------------------|A
E--------------------------------------------3------2--------0-------------------------------------------|E
     Hatag…        Tanang…                Ning kaLi         Butan…..

       C9                     D                      C9                      D
e-----------3---3--------------2---------------------3--------------2--------------------------------------|e
B--------3---3--3----------3-------3-------------3---3---------3------3------------------------------------|B
G------0-----------------2-------2----2--------0--------0----2------2----2---------------------------------|G
D----------------------0--------------------2----------------0---------------------------------------------|D
A---3-------------------------------------3----------------------------------------------------------------|A
E----------------------------------------------------------------------------------------------------------|E
       Inday…              Intawn              Alaot…             Naulipon…
Repeat twice till end...
        G                           C9
e-------------------------------------3-----3------------------------------------------------------------|e
B-------------3----3-------------3-----3-----3-----------------------------------------------------------|B
G-----------0---0---0---------0--------------------------------------------------------------------------|G
D--------0-----------------------------------------------------------------------------------------------|D
A---------------------------3----------------------------------------------------------------------------|A
E-----3--------------------------------------------------------------------------------------------------|E
       Giatay……


Boot kung ikaw masayud
paminawon mo
kay kung pananglit
lang iran mo
mga panun-paw pasalig ko
kung ugaling kalit kang mubiya
di ko kapugngan akong mga luha
kay ikaw akong himaya
handumon ko matag karun ug unya
ikaw ang langit ug yuta ako pinangga .. ahhh
ulaaaaaann. aahhhh

unya mihabol ang kangitngit
na giduyugan sa ulan
ug sa kalit lng nahanaw
ang bidlisiw sa adlaw


CHORUS
oh kahayag sa imong panagway
nga naulipon sa gugmang giatay
inday paminawa kabos kong gugma
nga kanimo akong igasa
dili ko man mahatag ang tanang bahandi
'ning kalibutan apan inday unya intawon
hinaot na naulipon sa gugmang giatay

ohhhh ....
Suggest correction
Give kudos to tab author, rate the tab!
1 2 3 4 5
comments
print report bad tab
guest
You may want to rate the tab now too:
select rating
Wanna post a correction for this tab? Suggest correction