Oops, an error
Loading. Please wait.

When To Let Go tab

553 views 24 this week
no commentswrite comment
1 2 3 4 5
2 more votes to show rating
add to favorites
×
Save as Personal and add changes to this tab that will be seen only by you. Learn more ›
×
You can save this tab as Personal to edit and correct it or add notes. All changes will be seen only by you. Learn more »
launch autoscroll
font size
0
reset
how to read this tab
guitar tuner
edit
Autoscroll
slow
fast
+/-
esc
set tempo
stop
[Intro]
    C                  C
eb|----------------3-|-------------------|
Bb|-------3---1------|---1---3----1----1-|
Gb|---0--------------|-------------------|
Db|---------2--------|-2---2---------2---|
Ab|-3---3--------3---|----------3--------|
Eb|------------------|-------------------|
                                                  
[Verse]
    C                    G                   Am                Am
eb|--------------------|-------------------|---------------3-|-----------------|
Bb|---1---1---1------0-|--0---3----3-------|---1---3---1-----|---1---0---1-----|
Gb|--------------------|-------------------|-----------------|-----------------|
Db|--------------------|-------------------|---------2-------|-2---2-------2---|
Ab|-3---3---3----------|----2---2-----2----|-0---0-------0---|---------0-------|
Eb|----------------3---|-3-----------------|-----------------|-----------------|
           Seasons turn        winter's gone                                the

    Fmaj7                 Fmaj7           C                     G                 C
eb|----------0----------|----------0----|---------------0-----|-----------------|-----------0-----|
Bb|-------1------1----1-|-----1------1--|---1----1----------1-|---0---0---3---0-|---1---1-------1-|
Gb|----2----------------|-0h2-----------|---------------------|-----------------|-----------------|
Db|-3----------3--------|---------------|-------------2-------|-----------------|---------2-------|
Ab|---------------------|---------------|-3----3----------3---|---------2-------|-3---3-------3---|
Eb|---------------------|---------------|---------------------|-3---3-------3---|-----------------|
    rain  can  finally    fall           springtime's got it    all                       

    G                  Am                Am                Fmaj7                    Fmaj7
eb|------------------|---------------3-|-----------------|-------0------------|-------0---------|
Bb|---0---0---3----0-|---1---3---1-----|---1---3---1---1-|-----1--------1---1-|-----1-----1---1-|
Gb|------------------|-----------------|-----------------|---2------------2---|---2---------2---|
Db|------------------|-----2-------2---|-----2-------2---|-3----------3-------|-3-------3-------|
Ab|---------2--------|-0-------0-------|-0-------0-------|--------------------|-----------------|
Eb|-3---3--------3---|-----------------|-----------------|--------------------|-----------------|
    it brings a  new   song everyday                   the cow jumped over the  moon          but

    C                        G                 Dm               Am
eb|--------------0---------|-----------------|-------1--1--1--|-0---0-0-0-0-|
Bb|---1------1-----------1-|---0---0---3---0-|-------3--3--3--|-1---1-1-1-1-|
Gb|------------------------|-----------------|-0-----2--2--1--|-2---2-2-2-2-|
Db|------------2-----------|-----------------|-0-----0--o--0--|-2---2-2-2-2-|
Ab|-3---3--------------3---|---------2-------|----------------|-0---0-0-0-0-|
Eb|------------------------|-3---3-------3---|----------------|-------------|
    I   have a silver spoon                    dream of holding you one day

    G                 G                 Dm             Am             G                G
eb|-----------------|---3--------3--3-|-1----1-1-1-1-|-0----0-0-0-0-|-3-3-----------3-|-------3-3-3-3-|
Bb|---0---0---3---0-|-------3----3--3-|-3----3-3-3-3-|-1----1-1-1-1-|-3-3---3---0-----|-------3-3-3-3-|
Gb|-----------------|---------0--0--0-|-2----2-2-2-2-|-2----2-2-2-2-|-0-0-------------|-------0-0-0-0-|
Db|-----------------|---------0--0--0-|-0----0-0-0-0-|-2----2-2-2-2-|-0-0-------------|-------0-0-0-0-|
Ab|---------2-------|-----2---2--2----|--------------|-0----0-0-0-0-|-2-2-------------|-------2-2-2-2-|
Eb|-3---3-------3---|-3-------3--3----|--------------|--------------|-3-3-3-----------|-------3-3-3-3-|
                             but I can hear  my        mo___mma say

[Chorus]
    C                     G                           Am                       Am7
eb|-0----0--0---0--0--0-|-3-----3--3----3---3---3---|-0---0--0----0---0---0--|-3--3-0--0-0-0-|
Bb|-1----1--1---1--1--1-|-3-----3--3----3---3---3---|-1---1--1----1---1---1--|-1--1-1--1-1-1-|
Gb|-0----0--0---0--0--0-|-0-----0--0----0---0---0---|-2---2--2----2---2---2--|-2--2-2--2-2-2-|
Db|-2----2--2---2--2--2-|-0-----0--0----0---0---0---|-2---2--2----2---2---2--|-2--2-2--2-2-2-|
Ab|-3----3--3---3--3--3-|-2-----2--2----2---2---2---|-0---0--0----0---0---0--|-0--0-0--0-0-0-|
Eb|---------------------|-3-----3--3----3---3---3---|------------------------|---------------|
    Love that child with all of your soul but there's one hard thing that you need to know if

    C                   G                          G                       C                 C
eb|-0---0--0----0-0-0-|-3----3-3--3---3---3-------|-3--------------------|---------------3-|----------------|
Bb|-1---1--1----1-1-1-|-3----3-3--3---3---3-------|-3--------------------|-------3---1-----|---1---3---1---1|
Gb|-0---0--0----0-0-0-|-0----0-0--0---0---0-------|-0--------------------|---0-------------|----------------|
Db|-2---2--2----2-2-2-|-0----0-0--0---0---0-------|-0--------------------|---------2-------|-2---2-------2--|
Ab|-3---3--3----3-3-3-|-2----2-2--2---2---2-------|-2--------------------|-3---3-------3---|---------3------|
Eb|-------------------|-3----3-3--3---3---3-------|-3--------------------|-----------------|----------------|
   you really want your love to  show know when to hold on and when to let go

[Bridge]
    Am                Am                F                 F
eb|---------------3-|-----------------|---------------3-|-----------------|
Bb|---1---3---1-----|---1---3---1---1-|---1---3---1-----|---1---3---1---1-|
Gb|-----------------|-----------------|-----------------|-----------------|
Db|-----------------|-----2---2---2---|-3---3---3---3---|-3---3---3---3---|
Ab|-0---0---0---0---|-0---------------|-----------------|-----------------|
Eb|-----------------|-----------------|-----------------|-----------------|

    C                 C                 C
eb|-------0---------|-----------3-----|-----------------|
Bb|---1---------0---|---3---1-------1-|---3---1---1---1-|
Gb|-----------0---0-|-----------------|-----------------|
Db|-----2-----------|-----2-------2---|-----2-------2---|
Ab|-3-------3-------|-3-------3-------|-3-------3-------|
Eb|-----------------|-----------------|-----------------|

[Verse]
    C/G                    G                    Am                Am
eb|----------------------|----------------3---|---------------3-|-----------------|
Bb|---1---1----1------1--|---0---0---3--------|---1---3---1-----|---1---0---1---1-|
Gb|----------------------|--------------------|-----------------|-----------------|
Db|----------------------|--------------------|---------2-------|-2---2-------2---|
Ab|-3---3----3------3----|---------2---2------|-0---0-------0---|---------0-------|
Eb|----------------------|-3---3--------------|-----------------|-----------------|
            seasons turn           she has your eyes                           she

    Fmaj7                        Fmaj7              C                  G
eb|------------0-------------0-|----------0-------|------------0-----|-----------------|
Bb|----1---------------1-------|-----1------------|---1---1--------1-|---0---0---3---0-|
Gb|--------2---------------2---|-0h2----------1---|------------------|-----------------|
Db|-3--------------3-----------|------------------|----------2-------|-----------------|
Ab|----------------------------|------------------|-3---3--------3---|---------2-------|
Eb|----------------------------|------------------|------------------|-3---3-------3---|
    walked and she learned to    run      now she's ri__ding in  the   sun

    C                      G                 Am                Am
eb|-------------0--------|-----------------|---------------3-|-----------------|
Bb|-0h1-----1----------1-|---0---0---3---0-|---1---3---1-----|---1---3---1---1-|
Gb|----------------------|-----------------|-----------------|-----------------|
Db|-----------2----------|-----------------|---------2-------|-2---2-------2---|
Ab|-3----3-----------3---|---------2-------|-0---0-------0---|---------0-------|
Eb|----------------------|-3---3-------3---|-----------------|-----------------|
            a little girl once and now she's grown                          I

    Fmaj7              Fmaj7              C                 G                 Dm          Am
eb|-------0--------0-|-------0----------|-----------0-----|-----------------|-1----1----|-0----0----|
Bb|---1--------1-----|-----1-----1----1-|---1---1-------1-|---0---0---3---0-|-3----3----|-1----1----|
Gb|-----2--------2---|-0h2--------------|-----------------|-----------------|-2----2----|-2----2----|
Db|-3--------3-------|---------3---3----|---------2-------|-----------------|-0----0----|-2----2----|
Ab|------------------|------------------|-3---3-------3---|---------2-------|-----------|-0----0----|
Eb|------------------|------------------|-----------------|-3---3-------3---|-----------|-----------|
    barely remember   when        she was in my  arms and  then          I    know that   she  won't   

    G                 G                Dm             Am             G                 G
eb|---------------3-|-3-3-3--3-3-3---|-1----1-1-1-1-|-0----0-0-0-0-|-3-3-----------3-|-------3-3-3-3-|
Bb|---0---3---0-----|-3-3-3--3-3-3---|-3----3-3-3-3-|-1----1-1-1-1-|-3-3---3---0-----|-------3-3-3-3-|
Gb|-----------------|-0-0-0--0-0-0---|-2----2-2-2-2-|-2----2-2-2-2-|-0-0-------------|-------0-0-0-0-|
Db|-----------------|-0-0-0--0-0-0---|-0----0-0-0-0-|-2----2-2-2-2-|-0-0-------------|-------0-0-0-0-|
Ab|---------2-------|-2-2-2--2-2-2---|--------------|-0----0-0-0-0-|-2-2-------------|-------2-2-2-2-|
Eb|-3---3-------3---|-3-3-3--3-3-3---|--------------|--------------|-3-3-3-----------|-------3-3-3-3-|
   stay                     and I can hear  my        mo___mma say

[Chorus]
    C                     G                           Am                       Am7
eb|-0----0--0---0--0--0-|-3-----3--3----3---3---3---|-0---0--0----0---0---0--|-3--3-0--0-0-0-|
Bb|-1----1--1---1--1--1-|-3-----3--3----3---3---3---|-1---1--1----1---1---1--|-1--1-1--1-1-1-|
Gb|-0----0--0---0--0--0-|-0-----0--0----0---0---0---|-2---2--2----2---2---2--|-2--2-2--2-2-2-|
Db|-2----2--2---2--2--2-|-0-----0--0----0---0---0---|-2---2--2----2---2---2--|-2--2-2--2-2-2-|
Ab|-3----3--3---3--3--3-|-2-----2--2----2---2---2---|-0---0--0----0---0---0--|-0--0-0--0-0-0-|
Eb|---------------------|-3-----3--3----3---3---3---|------------------------|---------------|
    Love that child with all of your soul but there's one hard thing that you need to know if

    C                   G                          G                       C                 C
eb|-0---0--0----0-0-0-|-3----3-3--3---3---3-------|-3--------------------|---------------3-|----------------|
Bb|-1---1--1----1-1-1-|-3----3-3--3---3---3-------|-3--------------------|-------3---1-----|---1---3---1---1|
Gb|-0---0--0----0-0-0-|-0----0-0--0---0---0-------|-0--------------------|---0-------------|----------------|
Db|-2---2--2----2-2-2-|-0----0-0--0---0---0-------|-0--------------------|---------2-------|-2---2-------2--|
Ab|-3---3--3----3-3-3-|-2----2-2--2---2---2-------|-2--------------------|-3---3-------3---|---------3------|
Eb|-------------------|-3----3-3--3---3---3-------|-3--------------------|-----------------|----------------|
   you really want your love to  show know when to hold on and when to let go

[Bridge]
    C                 C                 Am                Am                Fmaj7             Fmaj7
Eb|---------------3-|-----------------|---------------3-|-----------------|-------0---------|----------0---|
Bb|-------3---1-----|---1---3---1---1-|---1---3---1-----|---1---3---1---1-|---1-------1---1-|-----3------3-|
Gb|---0-------------|-----------------|-----------------|-----------------|-----------------|-0h2----------|
Db|---------2-------|-2---2-------2---|-----------------|-----2---2---2---|-3---3---3---3---|--------------|
Ab|-3---3-------3---|---------3-------|-0---0---0---0---|-0---------------|-----------------|--------------|
Eb|-----------------|-----------------|-----------------|-----------------|-----------------|--------------|

    C          G                   
eb|---1------|--------------------|
Bb|----------|---0---0---3---0----|
Gb|-0--------|--------------------|
Db|-----2-0--|--------------------|
Ab|-3--------|-----2-------2------|
Eb|----------|-3-------3----------|

[Verse]
    C/G                  G                     Am                Am
eb|-----------0--------|-----------3---------|---------------3-|-------------------|
Bb|---1---1----------1-|---0---3-----------3-|---1---3---1-----|---1-----0---1---1-|
Gb|--------------------|---------------------|-----------------|-------------------|
Db|---------2----------|---------------------|---------2-------|-2-----2-------2---|
Ab|-3---3----------3---|---------2-----------|-0---0-------0---|-----------0-------|
Eb|--------------------|-3---3-----------3---|-----------------|-------------------|
           Seasons turn         summer's here                                   the

    Fmaj7               Fmaj7               C                 G
eb|---------0---------|-------0-----------|-----------0-----|-----------------|
Bb|---1---------1---1-|---1-------1-----1-|---1---1-------1-|---0---0---3---0-|
Gb|-------2-------2---|-----2-------2-----|-----------------|-----------------|
Db|-3---------3-------|-3-------3---------|---------2-------|-----------------|
Ab|-------------------|-------------------|-3---3-------3---|---------2-------|
Eb|-------------------|-------------------|-----------------|-3---3-------3---|
    roses are in bloom              and the lilacs fall too   soon

    C                   G                    Am                Am              
eb|-------------0-----|--------------------|---------------3-|-----------------|
Bb|---1---1---------1-|--0----0-----3----0-|---1---3---1-----|---1---0---1---1-|
Gb|-------------------|--------------------|-----------------|-----------------|
Db|-----------2-------|--------------------|-----2-------2---|-----2-------0---|
Ab|-3---3---------3---|-----------2--------|-0-------0-------|-0-------0-------|
Eb|-------------------|-3---3----------3---|-----------------|-----------------|
         it's when the road calls you away                                  I

   Fmaj7                 Fmaj7                  C                 G                  Dm         Am
eb|--------0-----------|-------0--------------|-----------0-----|------------------|-1----1---|-0--0------|
Bb|---1----------1---1-|---1-------1----1-----|---1---1-------1-|---0---0---3----0-|-3----3---|-1--1------|
Gb|------2---------2---|-----2-------2--------|-----------------|------------------|-2----2---|-2--2------|
Db|-3---------3--------|-3-------3------------|---------2-------|------------------|-0----0---|-2--2------|
Ab|--------------------|----------------------|-3---3-------3---|---------2--------|----------|-0--0------|
Eb|--------------------|----------------------|-----------------|-3---3-------3----|----------|-----------|
    know this time  of  year         is when I try to  hide my  tears         and I  know that you can't 

    G                 G                Dm             Am             G                 G
eb|---------------3-|-3-3-3--3-3-3---|-1----1-1-1-1-|-0----0-0-0-0-|-3-3-----------3-|-------3-3-3-3-|
Bb|---0---3---0-----|-3-3-3--3-3-3---|-3----3-3-3-3-|-1----1-1-1-1-|-3-3---3---0-----|-------3-3-3-3-|
Gb|-----------------|-0-0-0--0-0-0---|-2----2-2-2-2-|-2----2-2-2-2-|-0-0-------------|-------0-0-0-0-|
Db|-----------------|-0-0-0--0-0-0---|-0----0-0-0-0-|-2----2-2-2-2-|-0-0-------------|-------0-0-0-0-|
Ab|-----2-------2---|-2-2-2--2-2-2---|--------------|-0----0-0-0-0-|-2-2-------------|-------2-2-2-2-|
Eb|-3-------3-------|-3-3-3--3-3-3---|--------------|--------------|-3-3-3-----------|-------3-3-3-3-|
   stay                     and I can hear  my        mo___mma say

[Chorus] x2
    C                     G                           Am                       Am7
eb|-0----0--0---0--0--0-|-3-----3--3----3---3---3---|-0---0--0----0---0---0--|-3--3-0--0-0-0-|
Bb|-1----1--1---1--1--1-|-3-----3--3----3---3---3---|-1---1--1----1---1---1--|-1--1-1--1-1-1-|
Gb|-0----0--0---0--0--0-|-0-----0--0----0---0---0---|-2---2--2----2---2---2--|-2--2-2--2-2-2-|
Db|-2----2--2---2--2--2-|-0-----0--0----0---0---0---|-2---2--2----2---2---2--|-2--2-2--2-2-2-|
Ab|-3----3--3---3--3--3-|-2-----2--2----2---2---2---|-0---0--0----0---0---0--|-0--0-0--0-0-0-|
Eb|---------------------|-3-----3--3----3---3---3---|------------------------|---------------|
    Love that   man with all of your soul but there's one hard thing that you need to know if

    C                   G                          G                       C                 C
eb|-0---0--0----0-0-0-|-3----3-3--3---3---3-------|-3--------------------|---------------3-|----------------|
Bb|-1---1--1----1-1-1-|-3----3-3--3---3---3-------|-3--------------------|-------3---1-----|---1---3---1---1|
Gb|-0---0--0----0-0-0-|-0----0-0--0---0---0-------|-0--------------------|---0-------------|----------------|
Db|-2---2--2----2-2-2-|-0----0-0--0---0---0-------|-0--------------------|---------2-------|-2---2-------2--|
Ab|-3---3--3----3-3-3-|-2----2-2--2---2---2-------|-2--------------------|-3---3-------3---|---------3------|
Eb|-------------------|-3----3-3--3---3---3-------|-3--------------------|-----------------|----------------|
   you really want your love to  show know when to hold on and when to let go

[Outro]
    C                  C                   Am                Am 
eb|----------------3-|-------------------|---------------3-|-----------------|
Bb|-------3---1------|---1---3----1----1-|---1---3---1-----|---1---3---1---1-|
Gb|---0--------------|-------------------|-----------------|-----------------|
Db|---------2--------|-2---2---------2---|-----------------|---------2---2---|
Ab|-3---3--------3---|----------3--------|-0---0---0---0---|-0---0-----------|
Eb|------------------|-------------------|-----------------|-----------------|

    C                 G                C                 G                 C
eb|---------------3-|----------------|-----------0-----|-----------------|-0------------------|
Bb|---1---3---1-----|---1---3---1---1|---1---1-------0-|---0---0---3---0-|-1------------------|
Gb|-----------------|----------------|-----------------|-----------------|-0------------------|
Db|-3---3---3---3---|-3---3---3---3--|-----2-------2---|-----------------|-2------------------|
Ab|-----------------|----------------|-3-------3-------|-----2-------2---|-2------------------|
Eb|-----------------|----------------|-----------------|-3-------3-------|--------------------|


************************************

| h  Hammer-on
  
************************************

            
            
Suggest correction
Creating personal tab
Creating personal tab
You can edit any tab online and save it as your Personal.

You can edit, replace or remove any tab part or add personal notes – all changes will be seen only by you.

Personal tabs can be accessed anytime from any device, even offline.
Learn more »
Give kudos to tab author, rate the tab!
1 2 3 4 5
comments
print report bad tab
guest
You may want to rate the tab now too:
select rating
Wanna post a correction for this tab? Suggest correction