Oops, an error
Loading. Please wait.

Fly By Night tab

19 views 1 this week
no commentswrite comment
1 2 3 4 5
3 more votes to show rating
add to favorites
×
Save as Personal and add changes to this tab that will be seen only by you. Learn more ›
×
You can save this tab as Personal to edit and correct it or add notes. All changes will be seen only by you. Learn more »
launch autoscroll
font size
0
reset
how to read this tab
guitar tuner
edit
Autoscroll
slow
fast
+/-
esc
set tempo
stop
About this tab version
Some parts have been simplified. Was this info helpful? Yes No
[Intro]
   Em                D                 G/B               G/B
e|-------3-------3-|-------2-------2-|-----------------|------------------|
B|-----------------|-----------------|-------3-------3-|-------3-------3--|
G|---0-------0-----|-----------------|---0-------0-----|---0-------0------|
D|-2---2---2---2---|-0-4-0---0-4-0---|-----------------|------------------|
A|-----------------|-----------------|-2---2---2---2---|-2---2---2---2----|
E|-----------------|-----------------|-----------------|------------------|

[Verse 1]
   Em                D                  G/B               G/B
e|-------3-------3-|-------2-------2--|-----------------|------------------|
B|-----------------|------------------|-------3-------3-|-------3-------3--|
G|---0-------0-----|------------------|---0-------0-----|---0-------0------|
D|-2---2---2---2---|-0-4-0---0-4-0----|-----------------|------------------|
A|-----------------|------------------|-2---2---2---2---|-2---2---2---2----|
E|-----------------|------------------|-----------------|------------------|
         I wait for night to fall, then make for the     sky    I'm

   Em                D                 G/B               G/B
e|-------3-------3-|-------2-------2-|-----------------|------------------|
B|-----------------|-----------------|-------3-------3-|-------3-------3--|
G|---0-------0-----|-----------------|---0-------0-----|---0-------0------|
D|-2---2---2---2---|-0-4-0---0-4-0---|-----------------|------------------|
A|-----------------|-----------------|-2---2---2---2---|-2---2---2---2----|
E|-----------------|-----------------|-----------------|------------------|
   heading           to the moon

   Em                D                 G/B               G/B
e|-------3-------3-|-------2-------2-|-----------------|------------------|
B|-----------------|-----------------|-------3-------3-|-------3-------3--|
G|---0-------0-----|-----------------|---0-------0-----|---0-------0------|
D|-2---2---2---2---|-0-4-0---0-4-0---|-----------------|------------------|
A|-----------------|-----------------|-2---2---2---2---|-2---2---2---2----|
E|-----------------|-----------------|-----------------|------------------|
   I'm into a    cannon                deep in the      night   I'm

   Em                D                 G/B               G/B
e|-------3-------3-|-------2-------2-|-----------------|------------------|
B|-----------------|-----------------|-------3-------3-|-------3-------3--|
G|---0-------0-----|-----------------|---0-------0-----|---0-------0------|
D|-2---2---2---2---|-0-4-0---0-4-0---|-----------------|------------------|
A|-----------------|-----------------|-2---2---2---2---|-2---2---2---2----|
E|-----------------|-----------------|-----------------|------------------|
   headed            for the moon

[Chorus]
   Cmaj7             D                 G/B               G/B
e|-------0-------0-|-------2-------2-|-----------------|-----------------|
B|-----0---0---0---|-----3---3---3---|-------3-------3-|-------3-------3-|
G|---0-------0-----|---2-------2-----|-----0---0---0---|-----0---0---0---|
D|-----------------|-0---------------|---0-------0-----|---0-------0-----|
A|-3---------------|-----------------|-2---------------|-2---------------|
E|-----------------|-----------------|-----------------|-----------------|
         Shoot it   to       the               moon

   Cmaj7             D                 G/B               G/B
e|-------0-------0-|-------2-------2-|-----------------|-----------------|
B|-----0---0---0---|-----3---3---3---|-------3-------3-|-------3-------3-|
G|---0-------0-----|---2-------2-----|-----0---0---0---|-----0---0---0---|
D|-----------------|-0---------------|---0-------0-----|---0-------0-----|
A|-3---------------|-----------------|-2---------------|-2---------------|
E|-----------------|-----------------|-----------------|-----------------|
         Rocket to           the moon

   Am                Bm                Gmaj7              G
e|-------0-------0-|-------2-------2-|---------2-------|-------------------|
B|-----1-------1---|-----3-------3---|-----0-3---3---0-|--------0-------0--|
G|---2-------2-----|---4-------4-----|---0---------0---|------0-------0----|
D|-----------------|-----------------|-----------------|----0-------0------|
A|-0-------0-------|-2-------2-------|-----------------|-------------------|
E|-----------------|-----------------|-3---------------|--3-------3--------|
          I'm        just    a________nother            shooting

   Am                G                 G                 G
e|-------0-------0-|-------3-------3-|-----------------|----------------|
B|-----1-------1---|-----0-------0---|-------3-------3-|-------3-------3|
G|---2-------2-----|---0-------0-----|-----0-------0---|-----0-------0--|
D|-----------------|-----------------|---0-------0-----|---0-------0----|
A|-0-------0-------|-----------------|-----------------|----------------|
E|-----------------|-3-------3-------|-3-------3-------|-3-------3------|
  star     You were always the         moon

[Bridge]
   Em                D                 G/B               G/B
e|-------3-------3-|-------2-------2-|-----------------|------------------|
B|-----------------|-----------------|-------3-------3-|-------3-------3--|
G|---0-------0-----|-----------------|---0-------0-----|---0-------0------|
D|-2---2---2---2---|-0-4-0---0-4-0---|-----------------|------------------|
A|-----------------|-----------------|-2---2---2---2---|-2---2---2---2----|
E|-----------------|-----------------|-----------------|------------------|

[Verse 2]
   Em                D                  G/B               G/B
e|-------3-------3-|-------2-------2--|-----------------|------------------|
B|-----------------|------------------|-------3-------3-|-------3-------3--|
G|---0-------0-----|------------------|---0-------0-----|---0-------0------|
D|-2---2---2---2---|-0-4-0---0-4-0----|-----------------|------------------|
A|-----------------|------------------|-2---2---2---2---|-2---2---2---2----|
E|-----------------|------------------|-----------------|------------------|
          We don't sleep like we         used to                  anymore

   Em                D                 G/B               G/B
e|-------3-------3-|-------2-------2-|-----------------|------------------|
B|-----------------|-----------------|-------3-------3-|-------3-------3--|
G|---0-------0-----|-----------------|---0-------0-----|---0-------0------|
D|-2---2---2---2---|-0-4-0---0-4-0---|-----------------|------------------|
A|-----------------|-----------------|-2---2---2---2---|-2---2---2---2----|
E|-----------------|-----------------|-----------------|------------------|
          We don't speak     like we          used to, no not anymore

   Em                D                 G/B               G/B
e|-------3-------3-|-------2-------2-|-----------------|------------------|
B|-----------------|-----------------|-------3-------3-|-------3-------3--|
G|---0-------0-----|-----------------|---0-------0-----|---0-------0------|
D|-2---2---2---2---|-0-4-0---0-4-0---|-----------------|------------------|
A|-----------------|-----------------|-2---2---2---2---|-2---2---2---2----|
E|-----------------|-----------------|-----------------|------------------|
         I've got to find       a way back       to the sky

   Em                D                 G/B               G/B
e|-------3-------3-|-------2-------2-|-----------------|------------------|
B|-----------------|-----------------|-------3-------3-|-------3-------3--|
G|---0-------0-----|-----------------|---0-------0-----|---0-------0------|
D|-2---2---2---2---|-0-4-0---0-4-0---|-----------------|------------------|
A|-----------------|-----------------|-2---2---2---2---|-2---2---2---2----|
E|-----------------|-----------------|-----------------|------------------|
           Find a   way      too

[Chorus]
   Cmaj7             D                 G/B               G/B
e|-------0-------0-|-------2-------2-|-----------------|-----------------|
B|-----0---0---0---|-----3---3---3---|-------3-------3-|-------3-------3-|
G|---0-------0-----|---2-------2-----|-----0---0---0---|-----0---0---0---|
D|-----------------|-0---------------|---0-------0-----|---0-------0-----|
A|-3---------------|-----------------|-2---------------|-2---------------|
E|-----------------|-----------------|-----------------|-----------------|
         Shoot it   to       the               moon

   Cmaj7             D                 G/B               G/B
e|-------0-------0-|-------2-------2-|-----------------|-----------------|
B|-----0---0---0---|-----3---3---3---|-------3-------3-|-------3-------3-|
G|---0-------0-----|---2-------2-----|-----0---0---0---|-----0---0---0---|
D|-----------------|-0---------------|---0-------0-----|---0-------0-----|
A|-3---------------|-----------------|-2---------------|-2---------------|
E|-----------------|-----------------|-----------------|-----------------|
         Rocket to           the moon

   Cmaj7             D                 G/B               G/B
e|-------0-------0-|-------2-------2-|-----------------|-----------------|
B|-----0---0---0---|-----3---3---3---|-------3-------3-|-------3-------3-|
G|---0-------0-----|---2-------2-----|-----0---0---0---|-----0---0---0---|
D|-----------------|-0---------------|---0-------0-----|---0-------0-----|
A|-3---------------|-----------------|-2---------------|-2---------------|
E|-----------------|-----------------|-----------------|-----------------|
         Shoot it   to       the               moon

   Cmaj7             D                 G/B               G/B
e|-------0-------0-|-------2-------2-|-----------------|-----------------|
B|-----0---0---0---|-----3---3---3---|-------3-------3-|-------3-------3-|
G|---0-------0-----|---2-------2-----|-----0---0---0---|-----0---0---0---|
D|-----------------|-0---------------|---0-------0-----|---0-------0-----|
A|-3---------------|-----------------|-2---------------|-2---------------|
E|-----------------|-----------------|-----------------|-----------------|
         Rocket to           the moon

[Verse 3]
   Em                D                  G/B               G/B
e|-------3-------3-|-------2-------2--|-----------------|------------------|
B|-----------------|------------------|-------3-------3-|-------3-------3--|
G|---0-------0-----|------------------|---0-------0-----|---0-------0------|
D|-2---2---2---2---|-0-4-0---0-4-0----|-----------------|------------------|
A|-----------------|------------------|-2---2---2---2---|-2---2---2---2----|
E|-----------------|------------------|-----------------|------------------|
         I won't be   coming back           anytime,             anytime  
    
   Em                D                   G/B               G/B
e|-------3-------3-|-------2-------2---|-----------------|------------------|
B|-----------------|-------------------|-------3-------3-|-------3-------3--|
G|---0-------0-----|-------------------|---0-------0-----|---0-------0------|
D|-2---2---2---2---|-0-4-0---0-4-0-----|-----------------|------------------|
A|-----------------|-------------------|-2---2---2---2---|-2---2---2---2----|
E|-----------------|-------------------|-----------------|------------------|
  soon I'll fly by night, you won't find me anytime,          no, not anytime

   Em                D                 G/B               G/B
e|-------3-------3-|-------2-------2-|-----------------|------------------|
B|-----------------|-----------------|-------3-------3-|-------3-------3--|
G|---0-------0-----|-----------------|---0-------0-----|---0-------0------|
D|-2---2---2---2---|-0-4-0---0-4-0---|-----------------|------------------|
A|-----------------|-----------------|-2---2---2---2---|-2---2---2---2----|
E|-----------------|-----------------|-----------------|------------------|
         I won't be   coming    back          anytime,             anytime  

   Em                D                 G/B               G/B
e|-------3-------3-|-------2-------2-|-----------------|------------------|
B|-----------------|-----------------|-------3-------3-|-------3-------3--|
G|---0-------0-----|-----------------|---0-------0-----|---0-------0------|
D|-2---2---2---2---|-0-4-0---0-4-0---|-----------------|------------------|
A|-----------------|-----------------|-2---2---2---2---|-2---2---2---2----|
E|-----------------|-----------------|-----------------|------------------|
    soon 

[Chorus]
   Am                Bm                Gmaj7              G
e|-------0-------0-|-------2-------2-|---------2-------|-------------------|
B|-----1-------1---|-----3-------3---|-----0-3---3---0-|--------0-------0--|
G|---2-------2-----|---4-------4-----|---0---------0---|------0-------0----|
D|-----------------|-----------------|-----------------|----0-------0------|
A|-0-------0-------|-2-------2-------|-----------------|-------------------|
E|-----------------|-----------------|-3---------------|--3-------3--------|
          I'm        just    a________nother            shooting

   Am                G                 G                 G
e|-------0-------0-|-------3-------3-|-----------------|-----------------|
B|-----1-------1---|-----0-------0---|-------3-------3-|-------3-------3-|
G|---2-------2-----|---0-------0-----|-----0-------0---|-----0-------0---|
D|-----------------|-----------------|---0-------0-----|---0-------0-----|
A|-0-------0-------|-----------------|-----------------|-----------------|
E|-----------------|-3-------3-------|-3-------3-------|-3-------3-------|
  star     You were always the         moon

[Bridge]
   Em                D                 G/B               G/B
e|-------3-------3-|-------2-------2-|-----------------|------------------|
B|-----------------|-----------------|-------3-------3-|-------3-------3--|
G|---0-------0-----|-----------------|---0-------0-----|---0-------0------|
D|-2---2---2---2---|-0-4-0---0-4-0---|-----------------|------------------|
A|-----------------|-----------------|-2---2---2---2---|-2---2---2---2----|
E|-----------------|-----------------|-----------------|------------------|

[Chorus]
   Cmaj7             D                 G/B               G/B
e|-------0-------0-|-------2-------2-|-----------------|-----------------|
B|-----0---0---0---|-----3---3---3---|-------3-------3-|-------3-------3-|
G|---0-------0-----|---2-------2-----|-----0---0---0---|-----0---0---0---|
D|-----------------|-0---------------|---0-------0-----|---0-------0-----|
A|-3---------------|-----------------|-2---------------|-2---------------|
E|-----------------|-----------------|-----------------|-----------------|
         Shoot it   to       the               moon

   Cmaj7             D                 G
e|-------0-------0-|-------2---------|-3----------------|
B|-----0---0---0---|-----3---3---3---|-0----------------|
G|---0-------0-----|---2-------2-----|-0----------------|
D|-----------------|-0---------------|-0----------------|
A|-3---------------|-----------------|-2----------------|
E|-----------------|-----------------|-3----------------|
         Rocket to           the moon

            
            
Suggest correction
Creating personal tab
Creating personal tab
You can edit any tab online and save it as your Personal.

You can edit, replace or remove any tab part or add personal notes – all changes will be seen only by you.

Personal tabs can be accessed anytime from any device, even offline.
Learn more »
Give kudos to tab author, rate the tab!
1 2 3 4 5
comments
print report bad tab
guest
You may want to rate the tab now too:
select rating
Wanna post a correction for this tab? Suggest correction