Oops, an error
Loading. Please wait.

Always You Tab

version 1
version 1

Whole song

Interactive

6,003 views 3 this week
3 commentsread comments
1 2 3 4 5
accurate
x 5
add to favorites
launch autoscroll
font size
0
reset
how to read this tab
guitar tuner
Tab Pro tools
  • play this tab
  • loop segment
  • change instrument
  • show fretboard
  • metronome
Autoscroll
slow
fast
+/-
esc
set tempo
stop
Contributor
Difficulty
Tuning
intermediate
D A D G B E
Always You- Amber Pacific

Drop Db Tuning
It’s basically dropped D tuning but a half-step down: 
Db Ab db Gb Bb Eb
.= Palm Mute    h= hammer on     p= pull off   / or \= slide up or down
x= mute note   #x= quick stop

Intro: 

Guitar 1
|----------------------------|
|--7---7---7---7---7-7-7-7---|
|--x---x---x---x---x-x-x-x---|
|--5---5---5---5---5-5-5-5---| X4
|----------------------------|
|---00--00--00--00-----------|
(Pm)..  ..  ..  ..

Guitar 2
|----------------------------------------------|
|----------------------------------------------|
|----------------------------------------------|
|----------------------------------------------|
|----------------------------------------------|
|---0000-00000-04444-5555-55555-57777----------|
(PM).... ..... ..... .... ..... .....
|----------------------------------------------|
|----------------------------------------------|
|---7~--6~--9~---------------------------------|
|---x-\-x-/-x----------------------------------|
|---5~--4~--7~---------------------------------|
|----------------------------------------------|

Guitar 1

|-----------------------|----------------------------|
|-----------------------|----------------------------|
|--7777-777777-7777-----|--------------7~------------|
|--xxxx-xxxxxx-xxxx---X2|--------------x-------------| 
|--5555-555555-5555-----|--------------5~------------| 
|-----------------------|----------------------------|

Guitar 2
(15s and 17s not 1s and 5s)
|------------------------------------|---------------|
|--17171717-1717171717-17171717------|-17~-----------|
|--x-x-x-x--x-x-x-x-x--x-x-x-x-------|-x-------------|
|--15151515-1515151515-15151515---X2-|-15~-----------| X2
|------------------------------------|---------------|
|------------------------------------|---------------|





Riff 1:

Guitar 1

|----------------------------------------------|
|----------------------------------------------|
|----7x-7x-7x-7x-------------------------------|
|----xx-xx-xx-xx-------------------------------|
|----5x-5x-5x-5x-------------------------------|
|-----------------\(pick slide)----------------|

Guitar 2

|----------------------------------------------|
|----------------------------------------------|
|----------------------------------------------|
|----5x-5x-5x-5x-------------------------------|
|----5x-5x-5x-5x-------------------------------|
|----5x-5x-5x-5x--\(pick slide)----------------|

Verse:

Guitar 1

|----------------------------------------------|
|----------------------------------------------|
|---777777777----------------------------------|
|---xxxxxxxxx----------------------------------| X4   
|---555555555----------------------------------|         
|----------------------------------------------|         
                  (10s 11s and 12s)
|----------------------------------------------|
|----------------------------------------------|
|--1111-1212-1111-9999-1212-1111-7777----------| 
|--x-x--x-x--x-x--xxxx-x-x--x-x--xxxx----------|  Repeat Both
|--9-9--1010-9-9--7777-1010-9-9--5555----------|
|----------------------------------------------|

Guitar 2

|----------------------------------------------|
|----------------------------------------------|
|----------------------------------------------|
|--44444444-55555555-00000000-77777777---------| X2
|--55555555-55555555-00000000-77777777---------|
|--44444444-55555555-00000000-77777777---------|










Riff 2:
Guitar 1

|--------------------|
|--------------------|
|------7-6h7-6h7-----| x2
|--------------------|
|---55---------------|
|---55---------------|
    ..
Guitar 2
|--------------------|
|--------------------|
|-------7-666/7------| X2
|-------x-xxx/x------|
|-------5-444/5------|
|--------------------|

PreChorus:

Guitar 1   
                     (10s, 14s, 15s)   1st Time          2nd Time
|---------10p9------10p9 -----9h10---|-----------------|----14--------|
|--101010------1010------1010-----X2-|-77-9-10-99-10-9-|--15--15--X4--|
|------------------------------------|-xx-x-x--xx-x--x-|14------------|
|------------------------------------|-55-7-8--77-8--7-|--------------|
|------------------------------------|-----------------|--------------|
|------------------------------------|-----------------|--------------|
   . . .       . .       . .                            ........                                       

Guitar 2
1st Time          2nd Time
|------------------------------------|-----------------|--------------|
|------------------------------------|-----------------|--------------|
|------------------------------------|77777777-66666666|--------------|
|--44-44-44-44-4444-55-55-55-55-5555-|77777777-66666666|-777777999999-|
|--44-44-44-44-4444-55-55-55-55-5555-|55555555-44444444|-777777999999-|
|--44-44-44-44-4444-55-55-55-55-5555-|-----------------|-777777999999-|

 
Chorus:

Guitar 1              
|------------------------------------------------------|
|------------------------------------------------------|
|--77x---------------11-11-12-11-14-14-12-11-9-12-11---| 
|--xxx---------------x--x--x--x--x--x--x--x--x-x--x----|
|--55x---------------9--9--10-9--12-12-10-9--7-10-9----|
|------\(pick slide)-----------------------------------|

|------------------------------------------------------|
|------------------------------------------------------|
|--77-9-11-99-12-11-14-14-12-11-9-12-11----------------| 
|--xx-x-x--xx-x--x--x--x--x--x--x-x--x-----------------|
|--55-7-9--77-10-9--12-12-10-9--7-10-9-----------------|
|------------------------------------------------------|



Guitar 2

|------------------------------------------------------|
|------------------------------------------------------|
|------------------------------------------------------| 
|---------------------44444444-99999999-55555555-------|
|-00------------------44444444-99999999-55555555-------|
|-00--\-(pick slide)--44444444-99999999-55555555-------|

|------------------------------------------------------|
|------------------------------------------------------|
|------------------------------------------------------| 
|-00000000-77777777-99999999-55555555------------------|
|-00000000-77777777-99999999-55555555------------------|
|-00000000-77777777-99999999-55555555------------------|

Riff 3
Guitar 1

|-----------------------------|
|-----------------------------|
|-7x-7x-7x-7x-7777-7x-7x-7~---| 
|-xx-xx-xx-xx-xxxx-xx-xx-x----|
|-5x-5x-5x-5x-5555-5x-5x-5~---| 
|-----------------------------|

Guitar 2

|------------------------------|
|------------------------------|
|------------------------------| 
|-0x-0x-0x-0x-0000-5x-5x--5~---|
|-0x-0x-0x-0x-0000-5x-5x--5~---|
|-0x-0x-0x-0x-0000-5x-5x--5~---|

Verse Again,
             This Riff Is Played |-----14------14----|
            Throughout The Verse |---15--15--15--15--|
              On A Third Guitar  |-14------14--------| 
                                 |-------------------|
                                 |-------------------|
                                 |-------------------|
                                   ................


Riff 2 Again


PreChorus Again


Chorus Again 




Bridge:

Guitar 1
|--------------------------|
|--------5------------5----|
|--7-6-7---7-6---7-6-7--7--| X4
|--------------------------|
|--------------------------|
|--------------------------|

Guitar 2
|--------------------------|--------------------------|
|--------------------------|--------------------------|
|--------------------------|--------------------------| 
|-0~--------------------xx-|-5----55----5----55----xx-|
|-0~--------------------xx-|-5----55----5----55----xx-|
|-0~--------------------xx-|-5----55----5----55----xx-|

|--------------------------|--------------------------|
|--------------------------|--------------------------|
|--------------------------|-14-14-14-1414-9-9-9-9-99-| 
|-9----99----9----99----xx-|-x--x--x--x-x--x-x-x-x-xx-|
|-9----99----9----99----xx-|-12-12-12-1212-7-7-7-7-77-|
|-9----99----9----99----xx-|--------------------------|


Chorus Again X2 

Outro: 

Guitar 1

|-----14---|------------------------|--------------------------|
|---15--15-|------------------------|----------5---------------|
|-14-------|-11-12-14-12-11-9-12-11-|-7--6--7-----7--6--7~~----|
|------X4--|-x--x--x--x--x--x-x--x--|-------------------x------|
|----------|-9--10-12-10-9--7-10-9--|-------------------5~~----| 
|----------|------------------------|--------------------------|

Guitar 2
|------------------|----------------|--------------------------|
|------------------|----------------|--------------------------|
|------------------|----------------|--------------------------| 
|-00000000-44444444-99999999-55555555-5x-5x-5x-5x-5555--0~~----|
|-00000000-44444444-99999999-55555555-5x-5x-5x-5x-5555--0~~----|
|-00000000-44444444-99999999-55555555-5x-5x-5x-5x-5555--0~~----|

Amber Pacific Rules!
Tabbed By: Michael Green
comments
print report bad tab
3 comments total.
0 reply
I-Z wrote on June 6 2006, 07:29 pm

This is Perfect! thanks

0 reply
punkrcksk8er182 wrote on September 12 2006, 07:03 pm

sweet this is pretty agg!!!

0 reply
No_Falter08 wrote on May 12 2007, 10:49 am

this is good...

I want to post or [tab]
guest
You may want to rate the tab now too:
select rating
Please do not post tabs as comments. Select "correction" instead!