Oops, an error
Loading. Please wait.

Always You tab

version 2
version 2

Whole song

Interactive

10,800 views 3 this week
7 commentsread comments
1 2 3 4 5
x 8
add to favorites
×
Save as Personal and add changes to this tab that will be seen only by you. Learn more ›
×
You can save this tab as Personal to edit and correct it or add notes. All changes will be seen only by you. Learn more »
launch autoscroll
font size
0
reset
how to read this tab
guitar tuner
edit
Autoscroll
slow
fast
+/-
esc
set tempo
stop
Author
Difficulty
This is my first tab so hopefully it's good enough.  It took a while to do, but it 
be pretty damn close to perfect.


Guitar 1 Part

Intro
PM  ..   ..   ..   ..       ..   ..   ..   ..
e--------------------------------------------------|
B-6-66-6-66-6-66-6-66-66666-66-6-66-6-66-6-66-9999-|
G-6-66-6-66-6-66-6-66-66666-66-6-66-6-66-6-66-xxxx-|
D-3-33-3-33-3-33-3-33-33334-44-4-44-4-44-4-44-6666-|
A-4-44-4-44-4-44-4-44-44444-44-4-44-4-44-4-44------|
E--------------------------------------------------|

    ..   ..   ..   ..       ..   ..   ..   ..
e--------------------------------------------------|
B-6-66-6-66-6-66-6-66-66666-66-6-66-6-66-6-66-6666-|
G-6-66-6-66-6-66-6-66-66666-66-6-66-6-66-6-66-6666-|
D-4-44-4-44-4-44-4-44-44444-44-4-44-4-44-4-44-4444-|
A-4-44-4-44-4-44-4-44-44444-44-4-44-4-44-4-44-4444-|
E--------------------------------------------------|

Preverse 1
e--------------------|
B--------------------|
G--------------------|
D-4-4-4~--4--4--4--4-|
A-4-4-4~--4--4--4--4-|
E-2-2-2~--2--2--2--2-|  Pick scrape

Verse
e---------------------------------------------------------------------|
B---------------------------------------------------------------------|
G-----------------------------------6666666666666666------------------|
D-8888888888888888-4444444444444444-6666666666666666-6666666666666666-|
A-8888888888888888-4444444444444444-4444444444444444-6666666666666666-|
E-6666666666666666-2222222222222222------------------4444444444444444-|

Bridge
e----------------------|
B----------------------|
G----------------------|
D-44---44---44----xxxx-|
A-44---44---44----xxxx-|
E-22---22---22----xxxx-|
  ..   ..   ..    ....

Prechorus
e-----------------------------------------------------------------------------|
B-----------------------------------------------------------------------------|
G---------------------------------------------6666666666666666-55555555555555-|
D-33--33--33--33--3--3--44--44--44--44--4--4--XXXXXXXXXXXXXXXX-XXXXXXXXXXXXXX-|
A-33--33--33--33--3--3--44--44--44--44--4--4--4444444444444444-33333333333333-|
E-11--11--11--11--1--1--22--22--22--22--2--2----------------------------------|

e-----------------------------------------------------------------------------|
B-----------------------------------------------------------------------------|
G---------------------------------------------6666666666666666-88888888888888-|
D-33--33--33--33--3--3--88--88--88--88--8--8--XXXXXXXXXXXXXXXX-XXXXXXXXXXXXXX-|
A-33--33--33--33--3--3--88--88--88--88--8--8--4444444444444444-66666666666666-|
E-11--11--11--11--1--1--66--66--66--66--6--6----------------------------------|

Chorus
e----------------------------------------------------------|
B----------------------------------------------------------|
G-6-6------------------------------------------------------|
D-6-6---6666666666666666-8888888888888888-4444444444444444-|
A-4-4---6666666666666666-8888888888888888-4444444444444444-|
E-------4444444444444444-6666666666666666-2222222222222222-|

e---------------------------------------------------------------------|
B---------------------------------------------------------------------|
G-6666666666666666----------------------------------------------------|
D-6666666666666666-6666666666666666-8888888888888888-4444444444444444-|
A-4444444444444444-6666666666666666-8888888888888888-4444444444444444-|
E------------------4444444444444444-6666666666666666-2222222222222222-|

Preverse 2
e-------------------------------|
B-------------------------------|
G-6---6---6---6---6-6-6---6---6-|
D-x---x---x---x---x-x-x---x---x-|
A-4---4---4---4---4-4-4---4---4-|
E-------------------------------|

Break
e----------------------------------------------------------------------|
B----------------------------------------------------------------------|
G----------------------------------------------------------------------|
D-xx--4--44-4-4--4-xxxx-4--44-4-4--4-xx---8--8--8-8--8--8-6--6--6-6--6-|
A-xx--4--44-4-4--4-xxxx-4--44-4-4--4-xx---8--8--8-8--8--8-6--6--6-6--6-|
E-xx--2--22-2-2--2-xxxx-2--22-2-2--2-xx---6--6--6-6--6--6-4--4--4-4--4-|

e---------------------------------------------------|
B---------------------------------------------------|
G-13131313131313131313131313131313-8888888888888888-|
D-x-x-x-x-x-x-x-x-x-x-x-x-x-x-x-x--xxxxxxxxxxxxxxxx-|
A-11111111111111111111111111111111-6666666666666666-|
E---------------------------------------------------|

Outro
e--------------------------|
B-------------<7>----------|
G----------------<7>----6~-|
D-4-4-4-4-4-4-------<7>-6~-|
A-4-4-4-4-4-4-----------4~-|
E-2-2-2-2-2-2--------------|


Intro
Preverse 1
Verse (2x's)
Bridge
Prechorus
Chorus
Preverse 2
Verse (2x's)
Bridge
Prechorus
Chorus
Break
Chorus
Outro

Guitar 2 Part

Intro  :05
e------------------------------------------------|
B------------------------------------------------|
G-666--\5--/8--/18181818--1818181818--1818181818-|
D-444--\x--/x--/x-x-x-x---x-x-x-x-x---x-x-x-x-x--|
A-444--\3--/6--/16161616--1616161616--1616161616-|
E------------------------------------------------|

e----------------------------------|
B----------------------------------|
G-18181818--1818181818--1818181818-|
D-x-x-x-x---x-x-x-x-x---x-x-x-x-x--|
A-16161616--1616161616--1616161616-|
E----------------------------------|

Preverse 1
e--------------------|
B--------------------|
G-6-6-6~--6--6--6--6-|
D-x-x-x~--x--x--x--x-|
A-4-4-4~--4--4--4--4-|
E--------------------|

Verse
e---------------------------------------------------|
B---------------------------------------------------|
G-10101010101010101010101010101010-6666666666666666-|
D-8-8-8-8-8-8-8-8-8-8-8-8-8-8-8-8--4444444444444444-|
A-8-8-8-8-8-8-8-8-8-8-8-8-8-8-8-8--4444444444444444-|
E---------------------------------------------------|

e-----------------------------------------------------------|
B-----------------------------------------------------------|
G-1010101010101010-11111111-6666-88888888-11111111-10101010-|
D-x-x-x-x-x-x-x-x--x-x-x-x--xxxx-xxxxxxxx-x-x-x-x--x-x-x-x--|
A-8-8-8-8-8-8-8-8--9-9-9-9--4444-66666666-9-9-9-9--8-8-8-8--|
E-----------------------------------------------------------|

Bridge (Fits between Guitar 1 palm muted part)
e-------------------------------------------------|
B-6--5/6\5/6---6--5/6\5/6---6--5/6\5/6---66--xxxx-|
G-6--5/6\5/6---6--5/6\5/6---6--5/6\5/6---66--xxxx-|
D-x--x/x\x/x---x--x/x\x/x---x--x/x\x/x---xx--xxxx-|
A-4--3/4\3/4---4--3/4\3/4---4--3/4\3/4---44--xxxx-|
E-------------------------------------------------|

Prechorus
e--------------------------------------------------------------------|
B--------------------------------------------------------------------|
G---------------------------------------------66666666-8888-10101010-|
D-33--33--33--33--3--3--44--44--44--44--4--4--XXXXXXXX-XXXX-X-X-X-X--|
A-33--33--33--33--3--3--44--44--44--44--4--4--44444444-6666-8-8-8-8--|
E-11--11--11--11--1--1--22--22--22--22--2--2-------------------------|

e----------------------------|
B----------------------------|
G-88888888-11111111-10101010-|
D-XXXXXXXX-X-X-X-X--X-X-X-X--|
A-66666666-9-9-9-9--8-8-8-8--|
E----------------------------|

e-----98----98--89----98----98--89------------------------------------------|
B-9999--9999--99--9999--9999--99--------------------------------------------|
G-----------------------------------66666666-8888-10101010-8888888888888888-|
D-----------------------------------xxxxxxxx-xxxx-x-x-x-x--xxxxxxxxxxxxxxxx-|
A-----------------------------------44444444-6666-8-8-8-8--6666666666666666-|
E---------------------------------------------------------------------------|

Chorus
e-----------------------------------------------------------------------------|
B-----------------------------------------------------------------------------|
G-6-6---1010101010-11111111-10101010101010-1313131313131313-11111111-10101010-|
D-6-6---x-x-x-x-x--x-x-x-x--x-x-x-x-x-x-x--x-x-x-x-x-x-x-x--x-x-x-x--x-x-x-x--|
A-4-4---8-8-8-8-8--9-9-9-9--8-8-8-8-8-8-8--1111111111111111-9-9-9-9--8-8-8-8--|
E-----------------------------------------------------------------------------|

e----------------------------------------------------------------------------|
B----------------------------------------------------------------------------|
G-66666666-11111111-10101010-66666666-8888-10101010-88888888-11111111-101010-|
D-xxxxxxxx-x-x-x-x--x-x-x-x--xxxxxxxx-xxxx-x-x-x-x--xxxxxxxx-x-x-x-x--x-x-x--|
A-44444444-9-9-9-9--8-8-8-8--44444444-6666-8-8-8-8--66666666-9-9-9-9--8-8-8--|
E----------------------------------------------------------------------------|

e---------------------------------------------------------------|
B---------------------------------------------------------------|
G-1313131313131313-11111111-10101010-88888888-11111111-10101010-|
D-x-x-x-x-x-x-x-x--x-x-x-x--x-x-x-x--xxxxxxxx-x-x-x-x--x-x-x-x--|
A-1111111111111111-9-9-9-9--8-8-8-8--66666666-9-9-9-9--8-8-8-8--|
E---------------------------------------------------------------|

Preverse 2
    ..   ..   ..   ..       ..   ..
e-------------------------------------|
B-6-66-6-66-6-66-6-66-66666-66-6-66-6-|
G-6-66-6-66-6-66-6-66-66666-66-6-66-6-|
D-3-33-3-33-3-33-3-33-33334-44-4-44-4-|
A-4-44-4-44-4-44-4-44-44444-44-4-44-4-|
E-------------------------------------|  Pick scrape

2nd Verse
e-4-4-9-9-13-13-9-9-|
B-------------------|
G-------------------|  (8 x's)
D-------------------|
A-------------------|
E-------------------|

Break
e-----------------------|
B-2-1-2-4-2-1-2-1-2-4-2-|
G-----------------------|
D-----------------------|
A-----------------------|
E-----------------------|

Outro
e-----------------|
B-2-1-2-4-2-1-----|
G--------------6~-|
D--------------6~-|
A--------------4~-|
E-----------------|


Intro
Preverse 1
Verse (2 x's)
Bridge
Prechorus
Chorus
Preverse 2
Verse 2 x's (1st time Verse 1, second time Verse 2)
Bridge
Prechorus 2 x's (Play the part with the riff both times)
Chorus
Break (4 x's)
Chorus (2x's)
Play Verse part once
Outro

Guitar 3 (Play 2 x's during last chorus)
e-------4--------------4---------|
B-6-4h6---6-4-6--6-4h6---6-4-6-2-|
G--------------------------------|
D--------------------------------|
A--------------------------------|
E--------------------------------|

            
            
Suggest correction
Creating personal tab
Creating personal tab
You can edit any tab online and save it as your Personal.

You can edit, replace or remove any tab part or add personal notes – all changes will be seen only by you.

Personal tabs can be accessed anytime from any device, even offline.
Learn more »
comments
print report bad tab
7 comments total. Showing first comments.
0 reply
I-Z 214 Jun 14, 2006 12:05 PM

Awesome dude thats exactly how i play this song.

0 reply
I-Z 214 Jun 14, 2006 08:48 PM

actually try it in drop d it makes the song that much easier

0 reply
tose34 31 Jun 15, 2006 07:22 AM

Thanks, I appreciate it.

guest
You may want to rate the tab now too:
select rating
Wanna post a correction for this tab? Suggest correction