Oops, an error
Loading. Please wait.

Cant Hold Back tab

3,273 views 1 this week
3 commentsread comments
1 2 3 4 5
x 3
add to favorites
×
Save as Personal and add changes to this tab that will be seen only by you. Learn more ›
×
You can save this tab as Personal to edit and correct it or add notes. All changes will be seen only by you. Learn more »
launch autoscroll
font size
0
reset
how to read this tab
guitar tuner
edit
Autoscroll
slow
fast
+/-
esc
set tempo
stop
Amber Pacific
Can't Hold Back
Drop D tuning
Tabbed by GuitarAmp58

<> Natural Harmonic
. Palm Mute
x Mute Note
h Hammer
p Pull off
x\\\\\ Pick Slide

Intro: Guitar 1
e|-----------------------------------------------------------|
B|-----------------------------------------------------<4>---|
G|------------------------3h4p3------------------------------|
D|-6666666666-2222-444444------4-6666666666-2222-4444--------|
A|-6666666666-2222-444444--------6666666666-2222-4444--------|
D|-6666666666-2222-444444--------6666666666-2222-4444--------|
   ..  ..  .  ..   . ....        ..  ..  .  ..   .

e|------------------------------------------------------|
B|------------------------------------------------------|
G|------------------------3h4p3-------------------------|
D|-6666666666-2222-444444------4-6666666666-2222-4444---|
A|-6666666666-2222-444444--------6666666666-2222-4444---|
D|-6666666666-2222-444444--------6666666666-2222-4444---|
   ..  ..  .  ..   . ....        ..  ..  .  ..   .

Verse: Both Guitars
e|-----------------------------------------------------------|
B|-----------------------------------------------------------|
G|-----------------------------44-444-44-444-----------------|
D|-66-666-66-666-22-222-22-222-44-444-44-444-44-444-44-444---|x2
A|-66-666-66-666-22-222-22-222-22-222-22-222-44-444-44-444---|
D|-66-666-66-666-22-222-22-222---------------44-444-44-444---|
   .. ... .. ... .. ... .. ... .. ... .. ... .. ... .. ...

Verse Cont: Both Guitars
e|------------|
B|------------|
G|------------|
D|---2~--4~---|
A|---2~--4~---|
D|---2~--4~---|

Chorus: Guitar 1
e|-------------------------------------------------------------------------|
B|-------------------------------------------------------------------------|
G|-44444444-99999-8-6-4-44444444-66666666---44444444-99999-8-6-4-44444444--|
D|-xxxxxxxx-xxxxx-x-x-x-xxxxxxxx-xxxxxxxx---xxxxxxxx-xxxxx-x-x-x-xxxxxxxx--|
A|-22222222-77777-6-4-2-22222222-22222222---22222222-77777-6-4-2-22222222--|
D|-------------------------------------------------------------------------|

Chorus: Guitar 2
e|------------------------------------------|
B|------------------------------------------|
G|-44444444-99999-8-6-4---------------------|
D|-44444444-xxxxx-x-x-x-22222222-44444444---|
A|-22222222-77777-6-4-2-22222222-44444444---|
D|----------------------22222222-44444444---|
         
Chorus Cont: Guitar 2
e|-----------------------------------------------|
B|-----------------------------------------------|
G|--44-44444444-99999-8-6-4----------------------|
D|--44-44444444-xxxxx-x-x-x-22222222-44-444-44---|
A|--22-22222222-77777-6-4-2-22222222-44-444-44---|
D|--------------------------22222222-44-444-44---|
    ..                               .. ... ..

Fill: Guitar 1
e|------------------------------------------------------|
B|------------------------------------------------------|
G|------------------------3h4p3-------------------------|
D|-6666666666-2222-444444------4-6666666666-2222-4444---|
A|-6666666666-2222-444444--------6666666666-2222-4444---|
D|-6666666666-2222-444444--------6666666666-2222-4444---|
   ..  ..  .  ..   . ....        ..  ..  .  ..   .

Verse: Both Guitars
e|-----------------------------------------------------------|
B|-----------------------------------------------------------|
G|-----------------------------44-444-44-444-----------------|
D|-66-666-66-666-22-222-22-222-44-444-44-444-44-444-44-444---|x2
A|-66-666-66-666-22-222-22-222-22-222-22-222-44-444-44-444---|
D|-66-666-66-666-22-222-22-222---------------44-444-44-444---|
   .. ... .. ... .. ... .. ... .. ... .. ... .. ... .. ...

Verse Cont: Guitar 1
e|----------|
B|----------|
G|---8\6~---|
D|---x\x~---|
A|---6\4~---|
D|----------|

Verse Cont: Guitar 2
e|------------|
B|------------|
G|------------|
D|---2~--4~---|
A|---2~--4~---|
D|---2~--4~---|

Chorus: Guitar 1
e|------------------------------------------|
B|------------------------------------------|
G|-44444444-99999-8-6-4-44444444-66666666---|
D|-xxxxxxxx-xxxxx-x-x-x-xxxxxxxx-xxxxxxxx---|x2
A|-22222222-77777-6-4-2-22222222-22222222---|
D|------------------------------------------|

Chorus: Guitar 2
e|------------------------------------------|
B|------------------------------------------|
G|-44444444-99999-8-6-4---------------------|
D|-44444444-xxxxx-x-x-x-22222222-44444444---|
A|-22222222-77777-6-4-2-22222222-44444444---|
D|----------------------22222222-44444444---|
                              

Chorus Cont: Guitar 2
e|----------------------------------------------|
B|----------------------------------------------|
G|--44-44444444-99999-8-6-4---------------------|
D|--44-44444444-xxxxx-x-x-x-22222222-44444444---|
A|--22-22222222-77777-6-4-2-22222222-44444444---|
D|--------------------------22222222-44444444---|
    ..

Bridge: Guitar 1 I'm not too sure on this part
e|----------------------------------------------|
B|----------------------------------------------|
G|---------------9p8-------9p8------------------|
D|--6-6-6-6-6-6------6h7p6------6-6-6-6--2--4---|
A|--6-6-6-6-6-6-----------------6-6-6-6--2--4---|
D|--6-6-6-6-6-6-----------------6-6-6-6--2--4---|

Bridge: Guitar 2
e|----------------------------------|
B|----------------------------------|
G|----------------------------------|
D|--6-6-6-6-6-6-6-6-6-6-6-6--2--4---|
A|--6-6-6-6-6-6-6-6-6-6-6-6--2--4---|
D|--6-6-6-6-6-6-6-6-6-6-6-6--2--4---|

Brigde Cont: Both Guitars
e|------------------------------------------------------|
B|------------------------------------------------------|
G|------------------------------------------------------|
D|----6---6---6---6---6---6--2--4--0~--2~---------------|
A|--6-6-6-6-6-6-6-6-6-6-6-6--2--4--0~--2~---------------|
D|--6-6-6-6-6-6-6-6-6-6-6-6--2--4--0~--2~----x\\\\\\\---|

End Chorus: Guitar 1
e|----------------------------|   |----------------|
B|----------------------------|   |----------------|
G|--16-----15----16----18-----|   |--16-----15-----|
D|---x-x13--x-x3--x-x8--x-x8--|x2 |---x-x28--x-x4--|Play this on third time
A|--14-----13----14----16-----|   |--14-----13-----|
D|----------------------------|   |----------------|

End Chorus: Guitar 2
e|-----------------------------------------------------------------------|
B|-----------------------------------------------------------------------|
G|-4444444444444444-------------------4444444444444444-------------------|
D|-4444444444444444-22222222-44444444-4444444444444444-22222222-44444444-|x3
A|-2222222222222222-22222222-44444444-2222222222222222-22222222-44444444-|
D|------------------22222222-44444444------------------22222222-44444444-|

Final Chorus: Guitar 1
e|---------------------------|
B|---------------------------|
G|--16----15----16----15-----|
D|---x-x8--x-x8--x-x8--x-x8--|
A|--14----13----14----13-----|
D|---------------------------|

Final Chorus: Guitar 2
e|-------------------------------------------------------------------------|
B|-------------------------------------------------------------------------|
G|-4444444444444444-------------------4444444444444444---------------------|
D|-4444444444444444-22222222-44444444-4444444444444444-22222222-44444444---|
A|-2222222222222222-22222222-44444444-2222222222222222-22222222-44444444---|
D|------------------22222222-44444444------------------22222222-44444444---|
                                                                     ...

            
            
Suggest correction
Creating personal tab
Creating personal tab
You can edit any tab online and save it as your Personal.

You can edit, replace or remove any tab part or add personal notes – all changes will be seen only by you.

Personal tabs can be accessed anytime from any device, even offline.
Learn more »
Give kudos to tab author, rate the tab!
1 2 3 4 5
comments
print report bad tab
3 comments total.
0 reply
I-Z 214 Sep 04, 2006 10:41 AM

Damn foo its like you just copied the way i play this song.....thats freakin wiered i play exactly the same........5 stars

0 reply
JSFS 35 Jul 26, 2008 03:32 PM

Bridge is off.
It's more like..

Instead of:

Brigde Cont: Both Guitars
e|---------------------------|
B|---------------------------|
G|---------------------------|
D|----6---6---6---6---6---6--|
A|--6-6-6-6-6-6-6-6-6-6-6-6--|
D|--6-6-6-6-6-6-6-6-6-6-6-6--|

It should be:

Brigde Cont: Both Guitars
e|------------------| (x6)
B|------------------|
G|------------------|
D|--6666-6-6666-6---|
A|--6666-6-6666-6---|
D|--6666-6-6666-6---|
PM--- PM---

Oh, and this:

Bridge: Guitar 2
e|---------------------------|
B|---------------------------|
G|---------------------------|
D|--6-6-6-6-6-6-6-6-6-6-6-6--|
A|--6-6-6-6-6-6-6-6-6-6-6-6--|
D|--6-6-6-6-6-6-6-6-6-6-6-6--|

Should be:

Bridge: Guitar 2
e|-----------------| (x6)
B|-----------------|
G|-----------------|
D|--66-6-66-6------|
A|--66-6-66-6------|
D|--66-6-66-6------|
PM- PM-

That sounds 100% correct to me, so just tell me whatcha think ^^

Other than the bridge, this tab is great! 4*

0 reply
JSFS 35 Jul 26, 2008 03:33 PM

Dayum my PM's got messed up. Just know they go for the notes closer together heh.

guest
You may want to rate the tab now too:
select rating
Wanna post a correction for this tab? Suggest correction