Oops, an error
Loading. Please wait.

Fall Back Into My Life tab

version 2
version 2

Whole song

Interactive

9,096 views 3 this week
5 commentsread comments
1 2 3 4 5
x 6
add to favorites
×
Save as Personal and add changes to this tab that will be seen only by you. Learn more ›
×
You can save this tab as Personal to edit and correct it or add notes. All changes will be seen only by you. Learn more »
launch autoscroll
font size
0
reset
how to read this tab
guitar tuner
edit
Autoscroll
slow
fast
+/-
esc
set tempo
stop
Amber Pacific
Fall Back Into My Life
Truth in Sincerity

Tuning:Drop D

Intro Guitar 1
e|-------------------------------------------------------------------------|
B|-------------------------------------------------------------------------|
G|--333-444/1111-999-888-6--333-444/1111-999-888-6--999-888--1111-999-888-6|
D|--xxx-xxx-x-x--xxx-xxx-x--xxx-xxx-x-x--xxx-xxx-x--xxx-xxx--x-x--xxx-xxx-x|
A|--111-222/9-9--777-666-4--111-222/9-9--777-666-4--777-666--9-9--777-666-4|
D|-------------------------------------------------------------------------|

e|-------------------------------------------------------------------------|
B|-------------------------------------------------------------------------|
G|--333-444-11-------------------------------------------------------------|
D|--xxx-xxx-x--------------------------------------------------------------|
A|--111-222-9--------------------------------------------------------------|
D|-------------------------------------------------------------------------|

Intro Guitar 2
e|-------------------------------------------------------------------------|
B|-------------------------------------------------------------------------|
G|--4444444444444444-------------------------------------------------------|
D|--4444444444444444-2222222222222222-6666666666666666-22222222------------|
A|--2222222222222222-2222222222222222-6666666666666666-22222222------------|
D|-------------------2222222222222222-6666666666666666-22222222------------|

Verse Guitar 2--PM
e|-------------------------------------------------------------------------|
B|-------------------------------------------------------------------------|
G|-4---------------------------4-------------------------------------------|
D|-4-x16--4------6------2------4-x16--4------6-----2-----4-----------------|
A|-2------4-x16--6-x16--2-x16--2------4-x16--6-x8--2-x8--4-----------------|
D|--------4------6------2-------------4------6-----2-----4-----------------|

Verse Guitar 1--let ring
e|---7-7-7-7--9-9-9-9--7-7-9-9---------------------------------------------|
B|----7-7-7-7--7-7-7-7--7-7-7-7--------------------------------------------|
G|-------------------------------------------------------------------------|
D|-------------------------------------------------------------------------|
A|-------------------------------------------------------------------------|
D|-------------------------------------------------------------------------|

Chorus Guitar 2
e|-------------------------------------------------------------------------|
B|-------------------------------------------------------------------------|
G|-------------------44444444-------------------44444444-------------------|
D|-66666666-22222222-44444444-44444444-22222222-22222222-6666666666666666--|
A|-66666666-22222222-22222222-44444444-22222222-22222222-6666666666666666--|
D|-66666666-22222222----------44444444-22222222----------6666666666666666--|

Chorus Guitar 1--x2
e|-------------------------------------------------------------------------|
B|-------------------------------------------------------------------------|
G|-4----11----8----6-----4----11----6--------------------------------------|
D|-x-x8-x--x8-x-x8-x-x8--x-x8-x--x8-x-x16----------------------------------|
A|-2----9-----6----4-----2----9-----4--------------------------------------|
D|-------------------------------------------------------------------------|

Intro

Verse is the same for guitar 2 but guitar one does the intro palm muted
e|----------------------------------let ring 7-7-9-9-7---------------------|
B|-------------------------------------------------------------------------|
G|---333-444/1111-999-888-6------------------------------------------------|
D|---xxx-xxx-x-x--xxx-xxx-x--x4--------------------------------------------|
A|---111-222-9-9--777-666-4------------------------------------------------|
D|-------------------------------------------------------------------------|

Chorus Guitar 2
e|-------------------------------------------------------------------------|
B|-------------------------------------------------------------------------|
G|-------------------44444444-------------------44444444-------------------|
D|-66666666-22222222-44444444-44444444-22222222-22222222-6666666666666666--|
A|-66666666-22222222-22222222-44444444-22222222-22222222-6666666666666666--|
D|-66666666-22222222----------44444444-22222222----------6666666666666666--|

Chorus Guitar 1--x2
e|-------------------------------------------------------------------------|
B|-------------------------------------------------------------------------|
G|-4----11----8----6-----4----11----6--------------------------------------|
D|-x-x8-x--x8-x-x8-x-x8--x-x8-x--x8-x-x16----------------------------------|
A|-2----9-----6----4-----2----9-----4--------------------------------------|
D|-------------------------------------------------------------------------|

Interlude is basically the intro again but slower I guess 
e|-------------------------------------------------------------------------|
B|-------------------------------------------------------------------------|
G|--4----------------------------------------------------------------------|
D|--4----------------2----------------6----------------2-------------------|
A|--2----------------2----------------6----------------2-------------------|
D|-------------------2----------------6----------------2-------------------|

Chorus Guitar 2
e|-------------------------------------------------------------------------|
B|-------------------------------------------------------------------------|
G|-------------------44444444-------------------44444444-------------------|
D|-66666666-22222222-44444444-44444444-22222222-22222222-6666666666666666--|
A|-66666666-22222222-22222222-44444444-22222222-22222222-6666666666666666--|
D|-66666666-22222222----------44444444-22222222----------6666666666666666--|

Chorus Guitar 1--x2
e|-------------------------------------------------------------------------|
B|-------------------------------------------------------------------------|
G|-4----11----8----6-----4----11----6--------------------------------------|
D|-x-x8-x--x8-x-x8-x-x8--x-x8-x--x8-x-x16----------------------------------|
A|-2----9-----6----4-----2----9-----4--------------------------------------|
D|-------------------------------------------------------------------------|




| /  slide up
| \  slide down
| h  hammer-on
| p  pull-off
| ~  vibrato
| +  harmonic
| x  Mute note
===============================================================================

            
            
Suggest correction
Creating personal tab
Creating personal tab
You can edit any tab online and save it as your Personal.

You can edit, replace or remove any tab part or add personal notes – all changes will be seen only by you.

Personal tabs can be accessed anytime from any device, even offline.
Learn more »
comments
print report bad tab
5 comments total. Showing first comments.
0 reply
mac_rogers 51 May 25, 2007 06:27 PM

good tab except for guitar 2's verse1 goes
Verse Guitar 2
e|-------------------------------------|
B|-------------------------------------|
G|-4-----------------------------------|
D|-4-x16--4------6------2-----2-2-2-2--|.....then as is
A|-2------4-x16--6-x16--2-x8--2-2-2-2--|
D|--------4------6------2-----2-2-2-2--|
and its not palm muted

0 reply
gotadobo119 10 Jun 03, 2007 10:46 AM

Good tab. 5 stars
Just the last two chord on Chorus Guitar 2 are off. The [2 2 4] is just a typo, and the last chord is not G#, but F#.

e|-------------------------------------------------------------------------|
B|-------------------------------------------------------------------------|
G|-------------------44444444-------------------44444444-------------------|
D|-66666666-22222222-44444444-44444444-22222222-44444444-4444444444444444--|
A|-66666666-22222222-22222222-44444444-22222222-22222222-4444444444444444--|
D|-66666666-22222222----------44444444-22222222----------4444444444444444--|

@mac rogers: It sounds like the verse is palm muted, except for last 4 strums you added. There are rests between each strum on those, though.

0 reply
HH_Emo_666 242 Oct 10, 2007 12:15 PM

i dont think the intro is octaves .. i think there just single notes

guest
You may want to rate the tab now too:
select rating
Wanna post a correction for this tab? Suggest correction