Oops, an error
Loading. Please wait.

Falling Away bass

323 views 3 this week
no commentswrite comment
1 2 3 4 5
3 more votes to show rating
add to favorites
×
Save as Personal and add changes to this tab that will be seen only by you. Learn more ›
×
You can save this tab as Personal to edit and correct it or add notes. All changes will be seen only by you. Learn more »
launch autoscroll
font size
0
reset
guitar tuner
edit
Autoscroll
slow
fast
+/-
esc
set tempo
stop
+++++++++++++++++++++++++++++++
| Amber Pacific- Falling Away |
+++++++++++++++++++++++++++++++


"A scene that we've seen before..."

Tuning: Drop D (DADG)


Intro
1.
G|-----------------------------------------------------------|
D|-----------------------------------------------------------|
A|-------------------------------22-2222-2-222---------------|
D|-00x--00-00x----00x--00-00x------------------55-5555-5-555-|

2.
G|------------------------------------|
D|------------------------------------|
A|-------------------00000000-0000-9\-|
D|-00000000-00000000------------------|

Verse
"Im on my last breath..."
3.
G|-----------------------------------------|
D|-----------------------------------------|
A|-2~----------------------------0~--------|
D|-----------5~--------0~------------------|

"Ill say these last words..."
4.
G|-----------------------------------------------------------------|
D|-----------------------------------------------------------------|
A|-2222222-2222222----------------------------55557777-0x----------|
D|------------------5555555-5555555--00000000----------------0/10\-|

Pre-Chorus
"when it comes down to this..."
5.
G|-------------------------------------------------|
D|-------------------------------------------------|
A|-------------------------0~-00-0~-00-0~-00-0~-00-|
D|-5~-55-5~-55-0~-00-0~-00-------------------------|

"I wont let you go..."
6.
G|--------------------------------------------------------------------------|
D|--------------------------------------------------------------------------|
A|-------------------55555555-55557777-00000000-00000000-0x------0x---------|
D|-55555555-55555555-----------------------------------------------------9\-|

Chorus
"Im falling away..."
7.
G|-------------------------------------------------------------------------|
D|-------------------------------------------------------------------------|
A|-------------------------------------22222222-22222222-00000000-00000000-|
D|-00000000-00000000-55555555-55555555-------------------------------------|

"Im holding it back..."
8.
G|-------------------------------------------------------------|
D|-------------------------------------------------------------|
A|-------------------------------2~-2~-22~-2~-2-0~-0~-00~-0~-0-|
D|-0~-0~-00~-0~-0-5~-5~-55~-5~-5-------------------------------|

Outro
9.
G|-------------------------------------------------------------------------|
D|-------------------------------------------------------------------------|
A|-0h2-2-222-2-2222-----------------------------------00x----00-00x--------|
D|------------------55-5-555-5-5555-00000000-00000000----------------------|

Verse
"The warmth from your hands..."
10.
G|-------------------------------------------------------------------------|
D|-------------------------------------------------------------------------|
A|-22222222-22222222-------------------------------------00000000-00001111-|
D|-------------------55555555-55555555-00000000-00000000-------------------|

"Ill wait for the time..."
11.
G|-----------------------------------------------------------------------|
D|-----------------------------------------------------------------------|
A|-22222222-22222222-------------------------------------0x--------------|
D|-------------------55555555-55555555-00000000-00000000-----------0/10\-|

Pre-Chorus
"when it comes down to this..."
12.
G|-------------------------------------------------|
D|-------------------------------------------------|
A|-------------------------0~-00-0~-00-0~-00-0~-00-|
D|-5~-55-5~-55-0~-00-0~-00-------------------------|

"I wont let you go..."
13.
G|--------------------------------------------------------------------------|
D|--------------------------------------------------------------------------|
A|-------------------55555555-55557777-00000000-00000000-0x------0x---------|
D|-55555555-55555555-----------------------------------------------------9\-|

Chorus
"Im falling away..."
14.
G|-------------------------------------------------------------------------|
D|-------------------------------------------------------------------------|
A|-------------------------------------22222222-22222222-00000000-00000000-|--x2
D|-00000000-00000000-55555555-55555555-------------------------------------|

Bridge
15.
G|-4-6-7~----6h7p6-4-6-7~--9~------2~----------------|
D|-------------------------------2-----------5~---4--|
A|-----------------------------0-----------4----4----|
D|---------------------------------------4-----------|

16.
G|--------------------------------------------------------------------------|
D|--------------------------------------------------------------------------|
A|-2-2222x----2-2222x-------------------------------------------------------|
D|-----------------------5-5555x----4-444444-44444444-4x-----------------9\-|

Chorus
"Im falling away..."
17.
G|-------------------------------------------------------------------------|
D|-------------------------------------------------------------------------|
A|-------------------------------------22222222-22222222-00000000-00000000-|--x2
D|-00000000-00000000-55555555-55555555-------------------------------------|

"A place to remember Ill always be yours..."
18.
G|-------------------------------------|
D|-------------------------------------|
A|-22222222-22222222-00000000-00000000-|
D|-------------------------------------|

Outro
19.
G|----------------------------|
D|----------------------------|
A|----------------------------|
D|-00x--00-00x----00x--00x----|


Please rate thank you!!


Lyrics:

I'm on my last breath
who'd have thought it'd be me
I'm leaving behind love, life ,family
I'll say these last words I'll fight the pain from within
the bleeding won't stop
I'll stop to take this all in

When it comes down to this
A scene that we've seen before
I won't let you go
I won't stand to watch
as these walls start to fall apart

I'm falling away
Away from your arms
that kept me so close
to the things that I love
I'm holding it back
take me back to your heart
A place to remember
I'll always be yours

The warmth from your hands
as they hold me so close
I'm losing this fight
now I need you the most
I'll wait for the time
though my days running thin
I'll count down the clock
I'll stop to take this all in



+++++++++++++++++++++++++++++++++
| RaiLeff                       |
| Underground__Dora@Hotmail.Com |
+++++++++++++++++++++++++++++++++

            
            
Suggest correction
Creating personal tab
Creating personal tab
You can edit any tab online and save it as your Personal.

You can edit, replace or remove any tab part or add personal notes – all changes will be seen only by you.

Personal tabs can be accessed anytime from any device, even offline.
Learn more »
Give kudos to tab author, rate the tab!
1 2 3 4 5
comments
print report bad tab
guest
You may want to rate the tab now too:
select rating
Wanna post a correction for this tab? Suggest correction