Oops, an error
Loading. Please wait.

For What Its Worth bass

version 1
version 1

Whole song

Interactive

402 views 1 this week
no commentswrite comment
1 2 3 4 5
3 more votes to show rating
add to favorites
×
Save as Personal and add changes to this tab that will be seen only by you. Learn more ›
×
You can save this tab as Personal to edit and correct it or add notes. All changes will be seen only by you. Learn more »
launch autoscroll
font size
0
reset
guitar tuner
edit
Autoscroll
slow
fast
+/-
esc
set tempo
stop
+++++++++++++++++++++++++++++++++++++
| Amber Pacific- For What Its Worth |
+++++++++++++++++++++++++++++++++++++


"Still I long for you to stay
I take back anything..."

Tuning: Drop C# (C#ADG)

Do get a Drop C# tuning, lower the thickest string
down until it the eight fret becomes an open A

G||-------|
D||-------|
A||--0----|
C#|--8----|


This song is by far one of the greatest Amber Pacific.
Its lyrics, music and emotion are totally great!!
enjoy!


Intro
1.
G||------------------------------------------------------------------------|
D||------------------------------------------------------------------------|
A||------------------2~-22-2-----------------------------2~-22-4~-44-4-----|
C#|-2~-222-2~-2-2-0~--------5-5-5-4-4-4-2~-222-2~-2-2-0~---------------12\-|

2.
G||------------------------------------------|
D||------------------------------------------|
A||------------------2~-22-2-----------------|
C#|-2~-222-2~-2-2-0~---------5-5-5-4x--------|

Verse
"Im taking it in..."
3.
G||-----------------------------------------------------------------------|
D||-1111x----4443x----------------------1111x----4443x------44------6-4-3-|
A||-------------------2222x----4444x-------------------2~-2----4~-4-------|
C#|-----------------------------------------------------------------------|

"Now that its over..."
4.
G||-------------------------------------------------------------------------|
D||-1111x----4443x----------------------1111x----4443x----------------------|
A||-------------------2222x----4444x----------------------22222222-44444444-|
C#|-------------------------------------------------------------------------|

Pre-Chorus
"Losing sight, you were all I had..."
5.
G||----------------------------------------------------------------------------|
D||---------------------------------6p4p3--------------------------------------|
A||----------44444444-22222222-4444----------------44444444-22222222-22222x----|
C#|-22222222------------------------------22222222-----------------------------|

Chorus
"We missed our chance..."
6.
G||------------------------------------------------------------|
D||----------------------------------------------4---4---4---4-|
A||-------------------------------2-22-22-22-2-2---2---2---2---|
C#|-5-55-55-55-5-5-0-00-00-00-0-0------------------------------|

"Though I wish that you werent breathing..."
7.
G||----------------------------------------------------|
D||----------------------------------------------------|
A||-------------2~-22-22-2-22-4-44-44-44-444-4~--------|
C#|-2-22-22-2-2----------------------------------------|

Verse
"And I was looking for something..."
8.
G||-------------------------------------------------------------------------|
D||-11111111-11111111-------------------------------------------------------|
A||-------------------44444444-44444444-22222222-22222222-44444444-44444444-|--x2
C#|-------------------------------------------------------------------------|

Pre-Chorus
"Still I long for you to stay..."
9.
G||-----------------------------------------------------------------------------------------|
D||-----------------------------------------------------------------------------------------|
A||---------------2~-22x----4~-44x----2~-22x--1414141414141414141414\-4-4-4-4-4-4-4x--------|
C#|-2~-22x----------------------------------------------------------------------------------|

Chorus
"We missed our chance..."
10.
G||------------------------------------------------------------|
D||----------------------------------------------4---4---4---4-|
A||-------------------------------2-22-22-22-2-2---2---2---2---|
C#|-5-55-55-55-5-5-0-00-00-00-0-0------------------------------|

"Though I wish that you werent breathing..."
11.
G||------------------------------------------------------------|
D||------------------------------------------------------------|
A||-------------2~-22-22-2-22-4-44-44-44-444-4~----16~\--------|
C#|-2-22-22-2-2------------------------------------------------|

Bridge
12.
G||---------------------------------------|
D||-4~------------------------------------|
A||----------4~-------6~--------4~--------|
C#|---------------------------------------|

13.
G||-----6-----------------------------------------------------------------------------------|
D||-4-4---4~-4-4-4~-4-4-4-----6---------------------8---------------------6-----------------|
A||-----------------------4-4---4~-4-4-4~-4-4-4-6-6---6~-6-6-6~-6-6-6-4-4---4~-4-4-4~-4-4-4-|
C#|-----------------------------------------------------------------------------------------|

Chorus
"We missed our chance..."
14.
G||------------------------------------------------------------|
D||----------------------------------------------4---4---4---4-|
A||-------------------------------2-22-22-22-2-2---2---2---2---|
C#|-5-55-55-55-5-5-0-00-00-00-0-0------------------------------|

"Though I wish that you werent breathing..."
15.
G||-------------------------------------------------------------|
D||-------------------------------------------------------6p4p3-|
A||-------------2~-22-22-2-22-4-44-44-44-444/161616161616-------|
C#|-2-22-22-2-2-------------------------------------------------|

"We missed our chance..."
16.
G||------------------------------------------------------------|
D||----------------------------------------------4---4---4---4-|
A||-------------------------------2-22-22-22-2-2---2---2---2---|
C#|-5-55-55-55-5-5-0-00-00-00-0-0------------------------------|

"Though I wish that you werent breathing..."
17.
G||---------------------------------------------------------|
D||---------------------------------------------------------|
A||-------------2~-22-22-2-22-4-44-44-44-444-4-44-44-44-444-|
C#|-2-22-22-2x----------------------------------------------|

Outro
18.
G||------------------------------------------------|
D||------------------------------------------------|
A||------------------------------------------------|
C#|-2~-22222~-22222x----2~-22222~-2222-2-0~--------|


Please rate thank you!


Lyrics:

I'm taking it in
I'm holding it back
I'm filling my lungs with the knife in my back
But you kept going on just to make me feel like this
Now that it's over
I won't feel the same
A broken frame with our picture is wasted
I've thrown it away
Losing sight
You were all I had (all I can take...)
I guess the jokes on me

We missed our chance
I won't forget
As time will only tell where to go
(Time will only tell where you go)
Though I wish that you weren't breathing
I still just can't believe
You're gone...

And I was looking for something
But I came up with nothing
Not a reason to leave or let this out
But you kept going on
Just to make me feel like this
Now that it's over
I won't feel the same
A broken friendship was worth it
I'll scrap any thoughts with your name
Still I long for you to stay
I take back anything

+++++++++++++++++++++++++++++++++
| RaiLeff                       |
| Underground__Dora@Hotmail.Com |
+++++++++++++++++++++++++++++++++
Suggest correction
Creating personal tab
Creating personal tab
You can edit any tab online and save it as your Personal.

You can edit, replace or remove any tab part or add personal notes – all changes will be seen only by you.

Personal tabs can be accessed anytime from any device, even offline.
Learn more »
Give kudos to tab author, rate the tab!
1 2 3 4 5
comments
print report bad tab
guest
You may want to rate the tab now too:
select rating
Wanna post a correction for this tab? Suggest correction