Oops, an error
Loading. Please wait.

Gone So Young bass

version 2
version 2

Whole song

Interactive

1,604 views 6 this week
3 commentsread comments
1 2 3 4 5
1 last vote to show rating
add to favorites
×
Save as Personal and add changes to this tab that will be seen only by you. Learn more ›
×
You can save this tab as Personal to edit and correct it or add notes. All changes will be seen only by you. Learn more »
launch autoscroll
font size
0
reset
guitar tuner
edit
Autoscroll
slow
fast
+/-
esc
set tempo
stop
Author
Tabbed by: Tommy
Email:d3athwish456@yahoo.com
Tuning: Standard

Fairly easy song, I like it, and made it my own, plus, the other tab is a weeeee bit off.

Watch out, here comes the
[Intro]
G|---------------------------------------------|
D|---------------------------------------------|
A|-2222222222----------------------------------|
E|------------2222222222-0000000000-2222222222-|

G|-----------------------------------------|
D|-----------------------------------------|
A|-2222222222------------------------------|
E|------------2222222222-0000000000-2*-/4*-|

[Verse 1](11 not 1)
G|---------------------------------------|
D|-------------99-------1111------1111---|
A|----66----77----7--99------9-99------9-|
E|-44----4-------------------------------|

[Verse 1[Part 2]]
G|-------------------------------------------------|
D|-----------------9-----9------4-----4------------|
A|----2-----2---77---777---7-22---222---2-22222222-|
E|-44---444---4------------------------------------|

G|---------------------------------------------------|
D|-----------------9-----9------4-----4--------------|
A|----2-----2---77---777---7-22---222---2-222222220*-|
E|-44---444---4--------------------------------------|

[Chorus]
G|---------------------------------------------|
D|---------------------------------------------|
A|-2222222222----------------------------------|
E|------------2222222222-4444444444-0000000000-|

G|-------------------------------------------------------|
D|-------------------------------------------------------|
A|-2222222222--------------------------------------------|
E|------------2222222222-0000000000-2*--4444444444444444-|

[Verse 2]
G|---------------------------------------------|
D|---------------------------------------------|
A|-1111111111----------------------------------|
E|------------1111111111-3333333333-0000000000-|

G|---------------------------------------------|
D|---------------------------------------------|
A|-1111111111----------------------------------|
E|------------1111111111-0000000000-1111111111-|

G|---------------------------------------------|
D|---------------------------------------------|
A|-1111111111----------------------------------|
E|------------1111111111-3333333333-0000000000-|

G|---------------------------------------------------|
D|---------------------------------------------------|
A|-1111111111----------------------------------------|
E|------------1111111111-3333333333-00000000-000-000-|

[Chorus]
G|---------------------------------------------|
D|---------------------------------------------|
A|-2222222222----------------------------------|
E|------------2222222222-4444444444-0000000000-|

G|-------------------------------------------|
D|-------------------------------------------|
A|-2222222222--------------------------------|
E|------------2222222222-0000000000-00000000-|

[Bridge]
G|-----------------------------------------|
D|-----------------------------------------|
A|-----------------------------------------|
E|-44-44---00-00---44-44---00-00---4-44-2*-|

I impervise in this part of the song...
No instrument, only vocals. Right when he starts saying the W in "Wherever" I do a bass 
when no instrument plays:

G|-------------|
D|-9-7---------|
A|-----9-8-7-5-|
E|-------------|

[Chorus]
G|---------------------------------------------|
D|---------------------------------------------|
A|-2222222222----------------------------------|
E|------------2222222222-4444444444-0000000000-|

G|---------------------------------------------|
D|---------------------------------------------|
A|-2222222222----------------------------------|
E|------------2222222222-0000000000-2222222222-|

[Ending]
G|---------------------------------------------|
D|---------------------------------------------|
A|-2222222222----------------------------------|
E|------------2222222222-4444444444-0000000000-|

G|------------------------------------------|
D|------------------------------------------|
A|-2222222222--------------------------2*-2-|
E|------------2222222222-0000000000-2*------|

            
            
Suggest correction
Creating personal tab
Creating personal tab
You can edit any tab online and save it as your Personal.

You can edit, replace or remove any tab part or add personal notes – all changes will be seen only by you.

Personal tabs can be accessed anytime from any device, even offline.
Learn more »
Give kudos to tab author, rate the tab!
1 2 3 4 5
comments
print report bad tab
3 comments total.
0 reply
roguebassist 176 Dec 09, 2006 10:23 AM

I messed up. On Verse 2, the last bar, it's
G|-----------------------------------------------|
D|-----------------------------------------------|
A|-1111111111------------------------------------|
E|------------1111111111-00000000-000-000--------|

+1 reply
chckndmplngs 504 May 27, 2007 09:44 AM

Verse 2 is way off. The real thing is like a walking bass and even if you play your version with the song, it sounds bad.

0 reply
rastabass 308 Jan 15, 2008 04:56 PM

verse 2 is off, and its the coolest part to the song

guest
You may want to rate the tab now too:
select rating
Wanna post a correction for this tab? Suggest correction