Oops, an error
Loading. Please wait.

Gone So Young tab

version 2
version 2

Whole song

Interactive

4,442 views 3 this week
1 commentread comment
1 2 3 4 5
x 3
add to favorites
×
Save as Personal and add changes to this tab that will be seen only by you. Learn more ›
×
You can save this tab as Personal to edit and correct it or add notes. All changes will be seen only by you. Learn more »
launch autoscroll
font size
0
reset
how to read this tab
guitar tuner
edit
Autoscroll
slow
fast
+/-
esc
set tempo
stop
Difficulty
WAz UP!! IM DOIn THIs FOR A fRIEND!! PLS ENjoY it!!This is My 1St taB herE in ulTimatE 
sana magustuhan nyo etoNg taBs a ito...thIS is GOne So YouNG bY amBer pacific...

INTRO(USED IN POWERCHORDS):

e :----2----------|---6-------|--4-------|---6------------------|
B :----2----------|---6-------|--4-------|---6------------------|
G :-------4-------|------8----|-----6----|------8---------------|
D :-------4-------|------8----|-----6----|------8---------------|
A :----2----------|---6-------|--4-------|---6------------------|
D :----2----------|---6-------|--4-------|---6------------------|

(SLIDE)

e :----9-----------|---7-------|--6-------|---4----------------------------|
B :----9-----------|---7-------|--6-------|---4----------------------------|
G :-------11-------|------9----|-----8----|-----6-------(STRUM TWICE)------|
D :-------11-------|------9----|-----8----|-----6--------------------------|
A :----9-----------|---7-------|--6-------|---4----------------------------|
D :----9-----------|---7-------|--6-------|---4----------------------------|


e :----2----------|---6-------|--4-------|---6------------------|
B :----2----------|---6-------|--4-------|---6------------------|
G :-------4-------|------8----|-----6----|------8---------------|
D :-------4-------|------8----|-----6----|------8---------------|
A :----2----------|---6-------|--4-------|---6------------------|
D :----2----------|---6-------|--4-------|---6------------------|


e :----2----------|---4-------|--6-------|---4------------------|
B :----2----------|---4-------|--6-------|---4------------------|
G :-------4-------|------6----|-----8----|------6---------------|
D :-------4-------|------6----|-----8----|------6---------------|
A :----2----------|---4-------|--6-------|---4------------------|
D :----2----------|---4-------|--6-------|---4------------------|


e :----2----------|---1-------|--2-------|
B :----2----------|---1-------|--2-------|
G :-------4-------|------3----|-----4----|
D :-------4-------|------3----|-----4----|
A :----2----------|---1-------|--2-------|
D :----2----------|---1-------|--2-------|

VERSE 1: Em-C-G-D
(STRUM ONCE in normal chords)
I never dreamt it'd be this way
I've lost any chance for me to say

(STRUM CONTINOUSLY IN PALM MUTE)
To say that I miss you, say that I love you
Will someone please tell me I'm okay
I wasn't prepared for what's to come
A life made of memories gone so young
And now I'm regretting all I've done
But in your heart know that I'm with you all along

  C-D(strum 4x)

CHORUS: G-D-Em-C(Powerchords)
Wherever you go, I will be waiting
Whenever you call, I will be there
Whatever it takes, I'll make your darkest days so bright
I'm in your heart tonight

VERSE 2: (same chords  as verse1)
I never thought that this could go
And take me away from all I know
And leave me to think I'm on my own
But your love will take me, you were the one...

Who sat through nights
You held me tight
And made sure I'm okay
And I thank you for the love you gave to me

(REPEAT CHORUS)

INTERLUDE: G-D(PALM MUTE) Em-C (2x)

Em-C-G-D(STRUM ONCE IN POWERCHORDS)

REAPEAT CHORUS(ACOUSTIC PART)
=============================


CHORUS: G-D-Em-C(Powerchords)
Wherever you go, I will be waiting
Whenever you call, I will be there
Whatever it takes, I'll make your darkest days so bright
I'm in your heart tonight

CHORUS 2: (GTR=G-D-Em-C)(GTR 2= INTRO
And if I should fall, I know you're waiting
And if I should call, I know you're there
If ever you cry just know
I'm in your heart tonight
I'm in your heart tonight....


G(STRUM ONCE)


THANK U PO..MDYO MAGULO..PERO OK DIN...MARK AT JESS...ETO NAH..HAHAHA...ANG ISA SA 
NATING KANTA!!! TAU LANG MERUN NITO!!! kmzta sa lahat ng NVC students dyan??? rock on

PHILIPPINES=LIANCE
Suggest correction
Creating personal tab
Creating personal tab
You can edit any tab online and save it as your Personal.

You can edit, replace or remove any tab part or add personal notes – all changes will be seen only by you.

Personal tabs can be accessed anytime from any device, even offline.
Learn more »
Give kudos to tab author, rate the tab!
1 2 3 4 5
comments
print report bad tab
1 comment total.
0 reply
HH_Emo_666 242 Feb 14, 2008 11:15 AM

.. wtf is this

guest
Wanna post a correction for this tab? Suggest correction