Oops, an error
Loading. Please wait.

Poetically Pathetic intro tab

version 1
version 1

Intro

Whole song

Interactive

1,371 views 1 this week
5 commentsread comments
1 2 3 4 5
1 last vote to show rating
add to favorites
×
Save as Personal and add changes to this tab that will be seen only by you. Learn more ›
×
You can save this tab as Personal to edit and correct it or add notes. All changes will be seen only by you. Learn more »
launch autoscroll
font size
0
reset
how to read this tab
guitar tuner
edit
Autoscroll
slow
fast
+/-
esc
set tempo
stop
Guitar 1
e|----------------------------------------|
B|----------------------------------------|
G|------1-------1-------1-------1---------|
D|----3---3---3---3---3---3---3---3-------|
A|--4-------4-------4-------4-------------|
D|----------------------------------------|

Guitar 2

e|---------------------------------------------------|
B|---------------------------------------------------|
G|---------------------------------------------------|
D|-4-4-6-6-4-4-6-6-4-4-6-6-4-4-6-6-------------------|
A|-4-4-6-6-4-4-6-6-4-4-6-6-4-4-6-6-------------------|
D|-4-4-6-6-4-4-6-6-4-4-6-6-4-4-6-6-------------------|

e|---------------------------------------------|
B|---------------------------------------------|
G|------------------------------------------6--|
D|-3-3-3-333-3-3--3-3-3-333-3-3--3333333333-x--|
A|-3-3-3-333-3-3--3-3-3-333-3-3--3333333333-4--|
D|-3-3-3-333-3-3--3-3-3-333-3-3--3333333333----|
PM . . . ... . .  . . . ... . .  ..........

Verse
e|--------------------------|
B|--------------------------|    These are the chords I can't really tab
G|-6---8---4----------------|    the strumming- it's easy to figure out.
D|-x---x---x----------------|    This goes until, "If time could stop..."
A|-4---6---2----------------|
D|--------------------------|


Well, there it is...I suppose it's a little more than intro. I'm not positive on the 
2 part but i think it's close. When I do the rest I'll put it up. If you figure any more 
feel free the e-mail me at dxcdfdfcv@yahoo.com

            
            
Suggest correction
Creating personal tab
Creating personal tab
You can edit any tab online and save it as your Personal.

You can edit, replace or remove any tab part or add personal notes – all changes will be seen only by you.

Personal tabs can be accessed anytime from any device, even offline.
Learn more »
Give kudos to tab author, rate the tab!
1 2 3 4 5
comments
print report bad tab
5 comments total. Showing first comments.
0 reply
KoRRuPT 10 May 02, 2006 02:11 PM

Figure the pattern
|---4---|
|--6-6--|
|-6-----|
|-------|
|-------|
|-------|

0 reply
I-Z 214 Jun 04, 2006 10:30 AM

Dude not even close I just put my tab on here it's waiting to be approved it's the whole thing then you can play the whole thing right good try tough you helped me get the beginning strumming but it's an octave higher than yous.

0 reply
I-Z 214 Jun 04, 2006 10:32 AM

this is the intro


E|-----------------------------------------------------------------|
B|--6-9-6-----6-9-6-----6-9-6-----6-9-6-9--------------------------|
G|-6---------6---------6---------6---------------------------------|
D|-----------------------------------------------------------------|
A|-----------------------------------------------------------------|
D|-----------------------------------------------------------------|

guest
You may want to rate the tab now too:
select rating
Wanna post a correction for this tab? Suggest correction