Oops, an error
Loading. Please wait.

Postcards tab

1,328 views 1 this week
2 commentsread comments
1 2 3 4 5
1 last vote to show rating
add to favorites
×
Save as Personal and add changes to this tab that will be seen only by you. Learn more ›
×
You can save this tab as Personal to edit and correct it or add notes. All changes will be seen only by you. Learn more »
launch autoscroll
font size
0
reset
how to read this tab
guitar tuner
edit
Autoscroll
slow
fast
+/-
esc
set tempo
stop
Amber Pacific
Postcards

Tabbed by: I-Z
Email:iz-30@hotmail.com

Tuning: Drop D
Ok this song is hard to tab out the strumming pattern so you have to figure out most of 
by yourself if you figure it out is sounds great I think!

Guitar 1

e|------------------------------------------------------------------------|
B|------------------------------------------------------------------------|
G|--6--5--6--8--10--11--10------------------------------------------------|
D|--x--x--x--x--x---x---x-----------x2------------------------------------|
A|--4--3--4--6--8---9---8-------------------------------------------------|
E|------------------------------------------------------------------------|

Guitar 2

e|------------------------------------------------------------------------|
B|------------------------------------------------------------------------|
G|--6--5--------3---5---6-------------------------------------------------|
D|--x--x--------x---x---x---44-6--44-6--44-6--8-6-4-----x2----------------|
A|--4--3--------1---3---4---44-6--44-6--44-6--8-6-4-----------------------|
E|--------------------------44-6--44-6--44-6--8-6-4-----------------------|

VERSE
Listen to figure out the strumming pattern
                                                              |
e|------------------------------------------------------------|-----------|
B|------------------------------------------------------------|-----------|
G|--66-55--6-8--66------------------------6-5-6-8-6-11-10-8-6-|-----------|
D|--xx-xx--x-x--xx---44-6-44-6-44-6-44-6--x-x-x-x-x-x--x--x-x-|-44-6—x4---|
A|--44-33--4-6--44---44-6-44-6-44-6-44-6--4-3-4-6-4-9—-8--6-4-|-44-6------|
E|-------------------44-6-44-6-44-6-44-6----------------------|-44-6------|
     *  *        *   **   **   **   **                          **

Pre Chorus
e|------------------------------------------------------------------------|
B|------------------------------------------------------------------------|
G|--6--8------------------------------------------------------------------|
D|--x--x------------------------------------------------------------------|
A|--4--6------------------------------------------------------------------|
E|------------------------------------------------------------------------|

CHORUS
Second time through add the last note but not the first time
e|------------------------------------------------------------------------|
B|------------------------------------------------------------------------|
G|--6--10-8-10-11-10-6-8-11-10-6-8----10--6-6-8-8--6-6-8-8----------------|
D|--x--x--x-x--x--x--x-x-x--x--x-x—x2-x---x-x-x-x--x-x-x-x----------------|
A|--4--8--6-8--9—-8--4-6-9--8--4-6----8---4-4-6-6--4-4-6-6----------------|
E|------------------------------------------------------------------------|
                                          *   *      *   *




CHORUS listen for timing
Guitar 2
e|------------------------------------------------------------------------|
B|------------------------------------------------------------------------|
G|--6--8--10-6------------------------------------------------------------|
D|--x--x--x--x---x2-------------------------------------------------------|
A|--4--6--8--4------------------------------------------------------------|
E|------------------------------------------------------------------------|

intro again
Guitar 1
e|------------------------------------------------------------------------|
B|------------------------------------------------------------------------|
G|--6--5--6--8--10--11--10------------------------------------------------|
D|--x--x--x--x--x---x---x-------------------------------------------------|
A|--4--3--4--6--8---9---8-------------------------------------------------|
E|------------------------------------------------------------------------|

Guitar 2

e|------------------------------------------------------------------------|
B|------------------------------------------------------------------------|
G|--6--5--------3---5---6-------------------------------------------------|
D|--x--x--------x---x---x---44-6--44-6--44-6--8-6-4-----------------------|
A|--4--3--------1---3---4---44-6--44-6--44-6--8-6-4-----------------------|
E|--------------------------44-6--44-6--44-6--8-6-4-----------------------|

VERSE 2
e|------------------------------------------------------------|-----------|
B|------------------------------------------------------------|-----------|
G|--66-55--6-8--66------------------------6-5-6-8-6-11-10-8-6-|-----------|
D|--xx-xx--x-x--xx---44-6-44-6-44-6-44-6--x-x-x-x-x-x--x--x-x-|-44-6—x4---|
A|--44-33--4-6--44---44-6-44-6-44-6-44-6--4-3-4-6-4-9—-8--6-4-|-44-6------|
E|-------------------44-6-44-6-44-6-44-6----------------------|-44-6------|
     *  *        *   **   **   **   **                          **

Pre Chorus
e|------------------------------------------------------------------------|
B|------------------------------------------------------------------------|
G|--6--8------------------------------------------------------------------|
D|--x--x------------------------------------------------------------------|
A|--4--6------------------------------------------------------------------|
E|------------------------------------------------------------------------|




CHORUS
Guitar 1
Only played once this time
e|---------------------------------------------------------------------------|
B|---------------------------------------------------------------------------|
G|--6--10-8-10-11-10-6-8-11-10-6-8--------6-6-8-8--6-6-8-8-------------------|
D|--x--x--x-x--x--x--x-x-x--x--x-x--------x-x-x-x--x-x-x-x-------------------|
A|--4--8--6-8--9—-8--4-6-9--8--4-6--------4-4-6-6--4-4-6-6-------------------|
E|---------------------------------------------------------------------------|
                                          *   *    *   *

CHORUS listen for timing
Guitar 2
e|------------------------------------------------------------------------|
B|------------------------------------------------------------------------|
G|--6--8--10-6------------------------------------------------------------|
D|--x--x--x--x------------------------------------------------------------|
A|--4--6--8--4------------------------------------------------------------|
E|------------------------------------------------------------------------|

BRIGDE
Try to figure out the strumming patterns
e|------------------------------------------------------------------------|
B|------------------------------------------------------------------------|
G|--66-55------6-8----16--------------------------------------------------|
D|--xx-xx--44--x-x-or-----44-66-------------------------------------------|
A|--44-33--44--4-6--------44-66-------------------------------------------|
E|---------44-------------44-66-------------------------------------------|
     *  *                     *

CHORUS
Ok it’s a little different this time
e|------------------------------------------------------------------------|
B|------------------------------------------------------------------------|
G|--6--10-8-10-11-10-6-8-11-10-6-8-----6-8-6--13-10-8---------------------|
D|--x--x--x-x--x--x--x-x-x--x--x-x—----x-x-x--x--x--x---pick slide--------|
A|--4--8--6-8--9—-8--4-6-9--8--4-6-----4-6-4--11-8--6---pick slide--------|
E|------------------------------------------------------pick slide--------|



CHORUS listen for timing
Guitar 2
e|------------------------------------------------------------------------|
B|------------------------------------------------------------------------|
G|--6--8--10-6------------------------------------------------------------|
D|--x--x--x--x------------------------------------------------------------|
A|--4--6--8--4------------------------------------------------------------|
E|------------------------------------------------------------------------|
CHORUS
PT 2
AFTER THE PICK SLIDE
GUITAR 2 BY ITSELF
e|------------------------------------------------------------------------|
B|------------------------------------------------------------------------|
G|--6--8--10--11--10--6--8--10--------------------------------------------|
D|--X--X—-X---X---X---X--X--X---------------------------------------------|
A|--4--6--8---9---8---4--6--8---------------------------------------------|
E|------------------------------------------------------------------------|


THEN BOTH GUTARS PLAYING DIFFERENT PARTS
GUITAR 2
e|------------------------------------------------------------------------|
B|------------------------------------------------------------------------|
G|------------------------------------------------------------------------|
D|--44------66------------------------------------------------------------|
A|--44-X2---66-X2---------------------------------------------------------|
E|--44------66------------------------------------------------------------|
    **      **
GUITAR 1                  END WITH THIS
e|-----------------------|------------------------------------------------|
B|-----------------------|------------------------------------------------|
G|------6\-----8\--------|------6---------8----6666-----------------------|
D|------X\-X2--X\-X2-----|-4444-X----6666-X----XXXX-4-66------------------|
A|------4\-----6\--------|-4444-4----6666-6----4444-4-66------------------|
E|-----------------------|-4444------6666-----------4-66------------------|
                           ****      ****

| /  slide up
| \  slide down
| h  hammer-on
| p  pull-off
| ~  vibrato
| +  harmonic

            
            
Suggest correction
Creating personal tab
Creating personal tab
You can edit any tab online and save it as your Personal.

You can edit, replace or remove any tab part or add personal notes – all changes will be seen only by you.

Personal tabs can be accessed anytime from any device, even offline.
Learn more »
Give kudos to tab author, rate the tab!
1 2 3 4 5
comments
print report bad tab
2 comments total.
0 reply
Bair 2,236 May 23, 2007 07:58 AM

I'm not quite sure this should be intermediate

-1 reply
athsmador 279 Dec 30, 2007 05:30 PM

its a little hard to read

guest
You may want to rate the tab now too:
select rating
Wanna post a correction for this tab? Suggest correction