Oops, an error
Loading. Please wait.

Right To Write Me Off bass

385 views 1 this week
no commentswrite comment
1 2 3 4 5
3 more votes to show rating
add to favorites
×
Save as Personal and add changes to this tab that will be seen only by you. Learn more ›
×
You can save this tab as Personal to edit and correct it or add notes. All changes will be seen only by you. Learn more »
launch autoscroll
font size
0
reset
guitar tuner
edit
Autoscroll
slow
fast
+/-
esc
set tempo
stop
++++++++++++++++++++++++++++++++++++++++++++
| Amber Pacific- The Right To Write Me Off | 
++++++++++++++++++++++++++++++++++++++++++++


"Remember how we used to be..."


Tuning: Half a step down (EbADG)


Intro
1.
G||---------------------------------------------------------------------|
D||---------------------------------------------------------------------|
A||-1~-11-1-1-1-1-11-1~-11-1-1-1-1-11-----------------------------------|--x2
Eb|-----------------------------------4~-44-4-4-4-4-22-4~-44-4-4-4-4-22-|

Verse
"Its growing old to see us torn..."
2.
G||---------------------------------------------------------------------------------------------|
D||---------------------------------------------------------------------------------------------|
A||-111~--------11x-----------------------------------------------------------------------------|
Eb|------------------------444~--------44x--------000~--------00x--------222~--------22x--------|

"Its getting colder through these walls..."
3.
G||-----------------------------------7---7---7---7---7---7---7---7-|
D||---------------------------------55--55--55--55--55--55--55--55--|
A||-111-111-111-111-111-111-111-111---------------------------------|
Eb|-----------------------------------------------------------------|

"And just a call from you..."
4.
G||---3---3---3---3---3---3---3---3---5---5---5---5---5---5---5---5-|
D||-11--11--11--11--11--11--11--11--33--33--33--33--33--33--33--33--|
A||-----------------------------------------------------------------|
Eb|-----------------------------------------------------------------|

Chorus
"Can we make this last forever?"
5.
G||-------------------------------------------------------------|
D||-------------------------------------------------------------|
A||-11-1-11-11-111----------------------------------------------|--x2
Eb|----------------00-0-00-00-000-44-4-44-44-444-00-0-00-00-000-|

Outro
6.
G||--------------------|
D||--------------------|
A||-1~-11-1-1-1-1-11~--|
Eb|--------------------|

Verse
"Through open eyes I sense a feeling..."
7.
G||------------------------------------|
D||------------------------------------|
A||-111~------11x----------------------|
Eb|--------------------444~------44x---|

--------------------------------------------------------------------|
--------------------------------------------------------------------|
--------------------------------------------------------------------|
--4/000-000-000-000-000-000-000-000-222-222-222-222-222-222-222-222-|

Chorus
"Can we make this last forever?"
8.
G||-------------------------------------------------------------|
D||-------------------------------------------------------------|
A||-11-1-11-11-111----------------------------------------------|--x2
Eb|----------------00-0-00-00-000-44-4-44-44-444-00-0-00-00-000-|

Outro
9.
G||-----------------------------------------|
D||-----------------------------------------|
A||-1~--------------------------------------|
Eb|-----------4~--------0~--------2~--------|

Bridge
"Remember how we used to be..."
10.
G||----------------------------------------------------3333-|
D||---------------------------------------------------------|
A||---------------------------------------------------------|
Eb|-44x--4x--44x--22x--2x--22x--00x--0x--00x--22x--2x-------|

"Remember how we used to be..."
11.
G||-----------------------------------------------------------|
D||-----------------------------------------------------------|
A||-----------------------------------------------------------|
Eb|-44x--4x--44x--22x--2x--22x--00x--0x--00x--2-2-2-2-2-2-2-2-|

Chorus
"Can we make this last forever?"
12.
G||------------------------------------------------------------|
D||------------------------------------------------------------|
A||-11x--------------------------------------------------------|
Eb|------------00x--------44x--------4/0~----\1212121212121212-|

"Can we make this time together..."
13.
G||---------------------------------------------------------------|
D||---------------------------------------------------------------|
A||-11-1111-11-111------------------------------------------------|
Eb|----------------00-0000-00-000-44-4444-44-444-00-0000-00-0x----|

"Can we make this last forever?"
14.
G||-------------------------------------------------------------|
D||-------------------------------------------------------------|
A||-11-1-11-11-111----------------------------------------------|--x2
Eb|----------------00-0-00-00-000-44-4-44-44-444-00-0-00-00-000-|

Outro
15.
G||-------------|
D||-------------|
A||-1-1x--------|
Eb|-------------|


Please rate thanks!!


Lyrics:

Can we make this last forever
With every word we're growing distant
And I feel as though I have to let you know

It's growing old to see us torn by every choice that I have made
In every instant you were right to write me off and move ahead
And I think I let you down, I throw it all away
I never meant to break it up or make you feel this way

It's getting colder through these walls that seem to thin to break us now
A perfect ending still in line though it seems our time is running out
And just a call from you would make this go away
I never felt this day would come, I'll never be the same

Can we make this last forever
With every word you're growing distant
And I feel as though I have to let you go 
Can we make this time together
Seem as though we never started
And it's hard to be the only one to know 

Through open eyes I sense a feeling painted black that lines your heart
It's bleeding through just like the colors that I've seen right from the start
And if I had the choice to do this all again
Would you be inclined to notice it or would you just pretend...

Remember how we used to be...



+++++++++++++++++++++++++++++++++
| Raileff                       |
| Underground__Dora@Hotmail.Com | 
+++++++++++++++++++++++++++++++++

            
            
Suggest correction
Creating personal tab
Creating personal tab
You can edit any tab online and save it as your Personal.

You can edit, replace or remove any tab part or add personal notes – all changes will be seen only by you.

Personal tabs can be accessed anytime from any device, even offline.
Learn more »
Give kudos to tab author, rate the tab!
1 2 3 4 5
comments
print report bad tab
guest
You may want to rate the tab now too:
select rating
Wanna post a correction for this tab? Suggest correction